Scar Tissue Uke乐谱通过 Red Hot Chili Peppers

3 在歌曲中使用的和弦: F, C, Dm

添加乐谱到您的歌本里
Tablature / ChordsFont size: A- A A+

不明白什么是乐谱和弦?请您浏览这些uke课程:

Intro
A---5--5--5--5--0-h1---1--1--1---1p0------5--5--5--5--0-h1------------
E---------------------------------------------------------------------
C-5--5--5--5----0-h2-----2--2--2----0---5--5--5--5----0-h2------------
G---------------------------------------------------------------------

FC
Scar tissue that I wish you saw
Dm Dm
Sarcastic mister know it all
FC
Close your eyes and I'll kiss you 'cause
Dm Dm
With the birds I'll share

FC
With the birds I'll share
Dm Dm
This lonely view
FC
With the birds I'll share
Dm Dm
This lonely view

FC
Push me up against the wall
Dm Dm
Young Kentucky girl in a push-up bra
FC
Fallin' all over myself
Dm Dm
To lick your heart and taste your health 'cause

FC
With the birds I'll share
Dm Dm
This lonely view
FC
With the birds I'll share
Dm Dm
This lonely view


A---------------------------------------------------------------------
E-8s5--------------5s3------3s5--5s-7s-8------------------------------
C---2--2222-0-2222-2-0-0000-0s2--2s-4s-5------------------------------
G---------------------------------------------------------------------
F (3555)C
Blood loss in a bathroom stall
Dm Dm
Southern girl with a scarlet drawl
FC
Wave goodbye to ma and pa 'cause
Dm Dm
With the birds I'll share

F F C C
With the birds I'll share
Dm Dm
This lonely view
F F C C
With the birds I'll share
Dm Dm
This lonely view

F F C C
Soft spoken with a broken jaw
Dm Dm
Step outside but not to brawl
F F C C
Autumn's sweet we call it fall
Dm Dm
I'll make it to the moon if I have to crawl and

F F C C
With the birds I'll share
Dm Dm
This lonely view
F F C C
With the birds I'll share
Dm Dm
This lonely view

Solo

A-5----5-3-0-----3--------3--------3-0--------5s-7s-8-----------------
E-------------------3--------3-----3----------------------------------
C-2-22-2-2-2-222-2--0--00-0--0--00----2---22--2s-4s-5----------------
G---------------------------------------------------------------------


F (8555) C
Scar tissue that I wish you saw
Dm Dm
Sarcastic mister know it all
F F C C
Close your eyes and I'll kiss you 'cause
Dm Dm
With the birds I'll share

F F C C
With the birds I'll share
Dm Dm
This lonely view
F F C C
With the birds I'll share
Dm Dm
This lonely view




Outro

A-5----5-3-0-----3--------3--------3-0----------5-----5s7--3-0--------
E-------------------3--------3-----3----------------------------------
C-2-22-2-2-2-222-2--0--00-0--0--00----2---2222--2--22-2----2-2---222--
G---------------------------------------------------------------------


A-3--------3----------------------------------------------------------
E----3-------------------3s5 55555------------------------------------
C-2--0-000-0--222-2s4s2------------2s4s2-2s4s0-0-0h2------------------
G-----------------------------------------------------2222------------

A----------5s8-7-3-3s5-0-1s3-----0------------------------------------
E-3s5-555---------------------3--1------------------------------------
C--------------------------------2------------------------------------
G--------------------------------0------------------------------------

 

乐谱评价 (2)
您必须登录才能加入讨论
要么 注册

 

JonWatts avatar
flag for US(ISO2) (Orlando)
Did you mean F OVER C?
18 Dec 2014
andr avatar
Ok Tab!
27 Jun 2014
关于这首歌

没有这首歌的信息.