Scar Tissue Uke乐谱通过 Red Hot Chili Peppers

3 在歌曲中使用的和弦: F, Dm, C

添加乐谱到您的歌本里
Tablature / ChordsFont size: A- A A+

不明白什么是乐谱和弦?请您浏览这些uke课程:

Intro:
A---------------------------------------------------------------
E-----------------------0-0-1--1---1-1-------1-0----------------
C---5-----5-----5-------0-0-2---2------2-2---2-0----------------
G------2---2-2-----2--------------------------------------------

2nd part
A-------------------------------------------------
E-----------------------0-0-1---------------------
C---5-----5-----5-------0-0-2---7-5--7-5----------
G------2---2-2-----2------------------------------

verse one: F F-Dm Dm
chorus: F F-C C-Dm Dm

 

乐谱评价 (1)
您必须登录才能加入讨论
要么 注册

 

sanoj99 avatar
Nice tab!
14 Feb 2013
关于这首歌

没有这首歌的信息.