Scar Tissue Uke乐谱通过 Red Hot Chili Peppers

0 在歌曲中使用的和弦: F, Dm, C

添加乐谱到您的歌本里
Tablature / ChordsFont size: A- A A+

不明白什么是乐谱和弦?请您浏览这些uke课程:

INTRO
A----------------------------------------------------------3--------------------
E----5---5-5---5--0--0/1--1---1--1----1/0---------5---5-5--0---3---0/1--3-1-3-1-
C--5---5-----5----0--0/2----2-------2-----0---2/5---5----------5---0/2----------
G-------------------------------------------------------------------------------

A ---
E 3-1
C ---
G ---

Verse
F F, Dm Dm

Chorus
F F, C C, Dm Dm

Solo 1
A ------------------------------------------|
E ----5---5--3--3-5---5---------------------|
C ------------------------------------------|
G -5---------------------4--4--5------------|

Solo 2
A--5-----5-3-0-------0-------3-0-------------5-----7-3-0-----3-------3-0-----5-7-8
E----------------------3---------------------------------------3------------------
C---------------------------------------------------------------------------------
G---------------------------------------------------------------------------------

Solo 3
A ---12--12--10--12-------------------------------------
E ----------------------------------------------------5-
C ------------------------------------------------------
G -------------------9---10--7---5-7--7--5-7--7--7--5---

A -------------------------------------------------
E ----3----5-----5--5--5--5--------------5---------
C ----------2-4-2-----------2-4-2--2-4-------2-----
G --5----5-----------------------------5---5-------

A ---------------------------------------|
E ----5--------------5--------3--5------|
C --------------------------------------|
G -------10--9--5--7--------5------------|

 

乐谱评价 (2)
您必须登录才能加入讨论
要么 注册

 

blastbird avatar
so good. Thank you
08 Oct 2018
DrPlamuur avatar
flag for NL(ISO2) (Eindhoven)
Thanks so much for this, lots of fun things to practice when you just started playing :).
12 Nov 2013
关于这首歌

没有这首歌的信息.