Scar Tissue Uke乐谱通过 Red Hot Chili Peppers

3 在歌曲中使用的和弦: F, C, Dm

添加乐谱到您的歌本里
Tablature / ChordsFont size: A- A A+

不明白什么是乐谱和弦?请您浏览这些uke课程:

# INTRO
A----------------------------------------------------------3-----------------------
E----5---5-5---5--0--0/1--1---1--1----1/0---------5---5-5--0---3---0/1--3-1-3-1-3-1
C--5---5-----5----0--0/2----2-------2-----0---2/5---5----------5---0/2-------------
G----------------------------------------------------------------------------------

# CHORUS
F F C C
with *** birds i'll share ****
Dm Dm
Lonely view

SOLO
A--5-----5-3-0-------0-------3-0-------------5-----7-3-0-----3-------3-0-----5/7/8
E----------------------3---------------------------------------3------------------
C--2-2-2-2-2-2-2-2-2-2-2-2-2-2-2-2-2-2-0-2-0-2-2-2-2-2-2-2-2-2-2-2-2-2-2-2-2-2/4/5
G---------------------------------------------------------------------------------

# you can continue the solo with the intro

 

乐谱评价 (1)
您必须登录才能加入讨论
要么 注册

 

eugelasso avatar
flag for AR(ISO2) (Buenos Aires)
Nice!
06 May 2013
关于这首歌

没有这首歌的信息.