Scar Tissue Uke乐谱通过 Red Hot Chili Peppers

Ukulele乐谱没有和弦.

添加乐谱到您的歌本里
Tablature / ChordsFont size: A- A A+

不明白什么是乐谱和弦?请您浏览这些uke课程:

# I tried to find chords for this song and found a sheet with F F and Dm Dm, then i
# started playing around with the strings and came up with this, hope u like it.

Intro:
A--------------------------------------------------------------
E--1----1-1-1---------------------1----1-1-1-----------1-1-1---
C--------------0--2---2-2-2---0----------------0--2-------2-2--
G----2---2-2-2-------2-2-2-2--------2---2-2-2------------------

# Rest of the song:
A---------------------------------
E--1----1-1-1---------------------
C--------------0--2---2-2-2---0---
G----2---2-2-2-------2-2-2-2------ Reapeat

 

乐谱评价 (0)
暂时没有评价. :(
需要帮助,你有一个小费分享,或只是想谈谈这首歌? 开始讨论!

您必须登录才能加入讨论
要么 注册

 

关于这首歌

没有这首歌的信息.