Road Trippin' Uke乐谱通过 Red Hot Chili Peppers

7 在歌曲中使用的和弦: Em, C, B, Am, G/B, G, A

添加乐谱到您的歌本里
Tablature / ChordsFont size: A- A A+

不明白什么是乐谱和弦?请您浏览这些uke课程:

I'm sure there are details and variations I've omitted, but  here's the basic outline:


Riff 1
Em Em C C B B
-----------|--2-----------|------------|------2-----
-----3-----|---------3----|-----0------|--------2---
--4------4-|------4----(4)-|--0-----(0)--|--3------3--
-----------|--------------|------0-----|----0-------


Riff 2

---------2-----2-----------2----------------------------
----3-------3-------5---3----(3) ---0--------2-----2-----
-4------4--------------------------0--------3-----------
--------------------------------------0--------0-----0--

Riff 3

Am Am G/B G/B C C G G
-----0---|----5-----|----3----|---10-----10------
-------0-|------7---|------0--|-----10-----10----
-4-------|--7-------|--0------|-------11-----11--
---5-----|-------0--|------0--|------------------

Riff 4

-10-----10--|--4-----4-|--3------3---|--5------5---
----12------|----5-----|-----0-------|-----2-------
-11----11---|--4---4---|--0----------|--2----------
------------|----------|-------0-----|-------2-----

Riff 5

-10--------10--|--4-------4-|--3------3----|-----------------
-----12--------|-----5------|------0-------|------5---------
-11-----11-----|--4----4----|--0-----------|--6------6------
---------------|------------|-------0------|--8---------8--

Riff 6

Em Em A A C C

--7------7---|------0-------0----|-----3--------3--------
-----7-------|--------0----------|--------3--------------
-------7-----|-----------4-------|-----------4------------
--9----------|------6------------|-----5------------------

----------------------------
-5------5-----5---------\--
-----6-----6-----6-------\-
-8------8-----8------8----\-

--------------------------
-14---11---8----5---2-----
-15---12---9----6---3-----
-17---14---11---8---5-----


-Riff 1-
Road trippin' with my two favorite allies
-Riff 1-
Fully loaded we got snacks and supplies
-Riff 2-
It's time to leave this town, it's time to steal away
-Riff 1-
Let's go get lost anywhere in the U.S.A.

-Riff 2-
Let's go get lost, let's go get lost

Chorus:
-Riff 1- all along

Blue you sit so pretty
West of the one
Sparkles light with yellow icing
Just a mirror for the sun
Just a mirror for the sun
Just a mirror for the
-Riff 3-
sun
-Riff 3-
These Smiling eyes are just a mirror for

-Riff 1a\-
So much as come before those battles lost and won
-Riff 1-
This life is shining more forever in the sun
-Riff 2-
Now let us check our heads and let us check the surf
-Riff 1-
Staying high and dry's more trouble than it's worth in the sun
-Riff 1-
Just a mirror for the sun
Just a mirror for the
-Riff 3-
sun
-Riff 3-
These Smiling eyes are just a mirror for

SOLO (Basically riffs 4 and 5)


-Riff 1-
In Big Sur we take some time to linger on
-Riff 1-
We three hunky dory's got our snakefinger on
-Riff 2-
Now let us drink the stars it's time to steal away
-Riff 1-
Let's go get lost right here in the U.S.A

-Riff 1-
Let's go get lost, let's go get lost


CHORUS (Riff 1 all along)

Ending of this chorus:
-Riff 3-
Just a mirror for the sun

-Riff 3-
These smiling eyes are just a mirror for
-Riff 3-
These smiling eyes are just a mirror for
-Riff 3-
Your smiling eyes are just a mirror for

ENDING: Riff 6

 

乐谱评价 (0)
暂时没有评价. :(
需要帮助,你有一个小费分享,或只是想谈谈这首歌? 开始讨论!

您必须登录才能加入讨论
要么 注册

 

关于这首歌

没有这首歌的信息.