Californication (介绍) Uke乐谱通过 Red Hot Chili Peppers

5 在歌曲中使用的和弦: Am, F, C, G, D

添加乐谱到您的歌本里
Tablature / ChordsFont size: A- A A+

不明白什么是乐谱和弦?请您浏览这些uke课程:

A|--0-----2--3---------------------------------|\
E|-----0---------------------------------------| \
C|--------------2--23--0---5--0---------2-0----| /6x
G|--------------------------------0--2---------|/

[Intro]
A|--0-----2--3---------------------------------|\
E|-----0---------------------------------------| \
C|--------------2--23--0---5--0---------2-0----| /6x
G|--------------------------------0--2---------|/

Am Am
Psychic spies from China
F F
Try to steal your mind's elation
Am Am
Little girls from Sweden
F F
Dream of silver screen quotations
C C G G
And if you want these kind of dreams
F F D D
It's Californication

A|--0-----2--3---------------------------------|\
E|-----0---------------------------------------| \
C|--------------2--23--0---5--0---------2-0----| /2x
G|--------------------------------0--2---------|/

[Verse]

Am Am
It's the edge of the world
F F
And all of western civilization
Am Am
The sun may rise in the East
F F
At least it settles in the final location
C C G G
It's understood that Hollywood
F F D D
sells Californication

A|--0-----2--3---------------------------------|\
E|-----0---------------------------------------| \
C|--------------2--23--0---5--0---------2-0----| /2x
G|--------------------------------0--2---------|/

[Pre Chorus]

Am Am
Pay your surgeon very well
F F
To break the spell of aging
Am Am
Celebrity skin is this your chin
F F
Or is that war your waging
Am Am F F
First born unicorn
Am Am F F
Hardcore soft porn

[Chorus]

C C G G D D Am Am
Dream of Californication
C C G G D D
Dream of Californication

A|--0-----2--3---------------------------------|\
E|-----0---------------------------------------| \
C|--------------2--23--0---5--0---------2-0----| /2x
G|--------------------------------0--2---------|/


[Verse]

Am Am
Marry me girl be my fairy to the world
F F
Be my very own constellation
Am Am
A A teenage bride with a baby inside
F F
Getting high on information
C C G G
And buy me a star on the boulevard
F F D D
It's Californication

A|--0-----2--3---------------------------------|\
E|-----0---------------------------------------| \
C|--------------2--23--0---5--0---------2-0----| /2x
G|--------------------------------0--2---------|/


[Verse]


Am Am
Space may be the final frontier
F F
But it's made in a Hollywood basement
Am Am
Cobain can you hear the spheres
F F
Singing songs off station to station
C C G G
And Alderon's not far away
F F D D
It's Californication

A|--0-----2--3---------------------------------|\
E|-----0---------------------------------------| \
C|--------------2--23--0---5--0---------2-0----| /2x
G|--------------------------------0--2---------|/


[Pre Chorus]

Am Am
Born and raised by those who praise
F F
Control of population
Am Am
Everybody's been there and
F F
I don't mean on vacation
Am Am F F
First born unicorn
Am Am F F
Hardcore soft porn

[Chorus]
C C G G D D Am Am
Dream of Californication
C C G G D D
Dream of Californication
C C G G D D Am Am
Dream of Californication
C C G G D D
Dream of Californication

[Solo]
A]---------------------------------------------------------|
E]----------------------------------5----------------------|
C]---------------4--6---6---4------------------------------|
G]-6--6-----4-6-------------6----------6---9----11---------|

A]---------------------------------------------------------------|
E]-5---------------^---------------------------------------------|
C]---------------------------------------------------------------|
G]------6---9----11-----11--------14----13----11----9---11----9--|
S
A]-----------------------------------------------------------|
E]-----------------------------------------------------------|
C]----------------11----11----11-----------------------------|
G]-6----9----6----6-----6-----6----9----6----11---11---9--6--|

A]------------------------------------------|
E]----------------5---------------------5---|
C]------------------------------------------|
G]-9----6----4---------9-----7-----6--------|


[Verse]

Am Am
Destruction leads to a very rough road
F F
But it also breeds creation
Am Am
And earthquakes are to a girl's guitar
F F
They're just another good vibration
C C G G
And tidal waves couldn't save the world
F F D D
From Californication

A|--0-----2--3---------------------------------|\
E|-----0---------------------------------------| \
C|--------------2--23--0---5--0---------2-0----| /2x
G|--------------------------------0--2---------|/

[Pre Chorus]

Am Am
Pay your surgeon very well
F F
To break the spell of aging
Am Am
Sicker than the rest there is no test
F F
But this is what you're craving
Am Am F F
First born unicorn
Am Am F F
Hardcore soft porn

[Chorus]

C C G G D D Am Am
Dream of Californication
C C G G D D
Dream of Californication
C C G G D D Am Am
Dream of Californication
C C G G D D
Dream of Californication
Suggest correction What's this?

 

乐谱评价 (0)
暂时没有评价. :(
需要帮助,你有一个小费分享,或只是想谈谈这首歌? 开始讨论!

您必须登录才能加入讨论
要么 注册

 

关于这首歌

没有这首歌的信息.