Californication (歌曲主要旋律) Uke乐谱通过 Red Hot Chili Peppers

Ukulele乐谱没有和弦.

添加乐谱到您的歌本里
Tablature / ChordsFont size: A- A A+

不明白什么是乐谱和弦?请您浏览这些uke课程:

# There is a few options for how to play the first half of this riff

------2-3-------------
----0-----0-----------
------------2h4p2p0---
--2-------------------
# or
------2-3-------------
----0-----------------
----------4-2h4p2p0---
--2-------------------
# or
--0---2-3-------------
----0-----------------
----------4-2h4p2p0---
----------------------
# or
--0---2-3-------------
----0-----0-----------
------------2h4p2p0---
----------------------

# I only know one way to play the second half
----------------------
--1-------------------
----0------2-0--------
------0--2------------

# Any of the first four will work for the first half. I use the first one, so the way I play it looks like this

------2-3------------------------
----0---------------1------------
----------4-2h4p2p0---0-----2-0--
--2---------------------0-2------

# h-hammer on
# p-pull off

 

乐谱评价 (0)
暂时没有评价. :(
需要帮助,你有一个小费分享,或只是想谈谈这首歌? 开始讨论!

您必须登录才能加入讨论
要么 注册

 

关于这首歌

没有这首歌的信息.