Californication (歌曲主要旋律) Uke乐谱通过 Red Hot Chili Peppers

Ukulele乐谱没有和弦.

添加乐谱到您的歌本里
Tablature / ChordsFont size: A- A A+

不明白什么是乐谱和弦?请您浏览这些uke课程:

# This is just the main guitar parts
# This does not include the chords or chorus

Intro/verse
---2-3----------------2-3-----------
--0-------1----------0--------1-----
-----------0-------------------0----
-2----------0-2-----2-----------0-2-

Prechorus
-----7-----------------------0---0----------------
----0-8-------------1---1---1----1----------------
---0-----------2---0-------2-----2----------------
---------0-4-4--------2----------2----------------


Solo
------------------------------------------------------------
--5-9----3b-p2---5-9---3b--p2---2-2-2p0----------0--2br-0---
----------------------------------------1----0-1---------1--
------------------------------------------------------------

------7-9-----7-9b-9--12-11-9----9--------------------------
--5-9-----5-9-----------------12---12-9-12-9--7b-7b-7b--12-9
------------------------------------------------------------
------------------------------------------------------------

--9br-7---7-------7-5-4-0-----------------------------------
--------9---9-7-5-------------------------------------------
------------------------------------------------------------
------------------------------------------------------------

 

乐谱评价 (4)
您必须登录才能加入讨论
要么 注册

 

dayzb22 avatar
what does b mean
20 May 2020
Lennyboy96 avatar
nice UKULELEsong
28 Jul 2019
Syrus avatar
b and br, what is it?
13 Aug 2016
Bestrezen avatar
flag for RU(ISO2) (Saratov)
Great Job man)
18 Feb 2012
关于这首歌

没有这首歌的信息.