Black Betty Uke乐谱通过 Ram Jam

Ukulele乐谱没有和弦.

添加乐谱到您的歌本里
Tablature / ChordsFont size: A- A A+

不明白什么是乐谱和弦?请您浏览这些uke课程:

|---------------------|-/9-12-12-12-9-12-9S==7---5---|
|---------------------|----------------------------7-|
|---------------------|------------------------------|
|---------------------|------------------------------|
s s
|-4--4--x-x---x---x---7-|==4--4--x-x-----x-----x---7-|
|---------5---7---5-5-|----------5-----7-----5-5-|
|-11-11-x-x-2-x-4-x-2-9-|==11-11-x-x-2---x-4---x-2-9-|
|-4-4-----7-x-9-x-7---|--4-4-----7---x-9---x-7---|
H S P
|---------------------------------|
|-5-------------------5-----5-----|
|----------------6-------6--------|
|---4-4-4-4-----------------------|

|-4----4----x-x-----x-------x----7--|
|-------------5-----5--------5-5--|
|-11---11---x-x-2---x-2-----x--2-9--|
|-4---4-------7---x-7-----x--7----|
S H s P H P
|----------------------------------------------|------------------------|
|--4--------------------(--)----5------------|------------------------|
|------------------------------------4-2-4-2-|-4-6---4----------------|
|-----4--11--10--9--7--8---8---4-----==--------|--b---(-)---------------|

|---4---4---x--x------------x--------x-----7---|-x-----4----x-4--x-4--x----|
|---------------5-------------7------5---5---|---------------------7--|
|---11--11--x--x--2---------x---4----x-2---9---|-x-----11---x-11-x-11-x-4--|
|---4--4--------7---------x---9----x-7-------|-------4-----4---4---9--|
|--x--9-------x-------9---------x-9-----5-5------|
|--x--7-------x-------7---------x-7--------------|
|--x--11-------x-------11---------x-11-----9-9------|
|---------------------------------------7-7------|
|-----------------------12-9---12-|-9-7-12-9S7-5-7-5---5-7S9-12-----12-|
|---------------------------------|------------------7-----------------|
|---------------------------------|------------------------------------|
|-4---7b7.5---4-9-4-7-4------4----|-----------------------------7-4----|
|-x-9-x-----9---x---9---x-7---x-|-9-------x---x---5-------x---x---|
|-x-7-x-----7---x---7-----------|-7-------x---x-------------------|
|-x-11-x-----11---x---11---x-11---x-|-11-------x---x---9-------x---x---|
|-----------------------x-9---x-|-----------------7-------x---x---|

|----------|--------------|----------|--------|
|----------|--------------|----------|--------|
|----------|-(-)----------|----------|--------|
|-4--------|--4-----------|----------|--------|
S
|---------------|----------|--------------|--------------|
|---------------|----------|--------------|--------------|
|-9-------------|----------|------9-------|------9-------|
|-7-------------|----------|------7-------|------7-------|
|--9\-----------|----------|-------9------|-------9------|
|--7\-----------|----------|-------7------|-------7------|
|--11------------|----------|-------11------|-------11------|
|---------------|----------|--------------|--------------|

|--------------|--------------|--------------|------------------|
|--------------|--------------|--------------|------------------|
|------9-------|------9-------|------9-------|------9-----------|
|------7-------|------7-------|------7-------|------7-----------|
|-------9------|-------9------|-------9------|-------9------7S==|
|-------7------|-------7------|-------7------|-------7------5S==|
|-------11------|-------11------|-------11------|-------11------9S==|
|--------------|--------------|--------------|------------------|
|-/9-12-12-12-9-12-9S==7---5---|-12------------------------------|
|----------------------------7-|---------------------------------|
|------------------------------|---------------------------------|
|------------------------------|----4-4-4-4-----/11----14-p11--14----|
s s
|--4--4--x-x-----x-----x---7-|=4----4----x-x-----x-------x----7-|
|----------5-----7-----5-5-|-------------5-----5--------5-5-|
|--11-11-x-x-2---x-4---x-2-9-|=11---11---x-x-2---x-2-----x--2-9-|
|--4-4-----7---x-9---x-7---|-4---4-------7---x-7-----x--7---|
S s
|-----------------------------------------------|
|--4--------------------(--)----5-------------|
|------------------------------------4-2-4-2--|
|-----4--11--10--9--7--8---8---4-----==---------|

|---4---4---x--x------------x--------x-----7----|
|---------------5-------------7------5---5----|
|---11--11--x--x--2---------x---4----x-2---9----|
|---4--4--------7---------x---9----x-7--------|
P P P P P
|------------------------|------------------------------------------------|
|------------------------|----------------------------------------------5-|
|-4-6---4----------------|--4--4--5----4--5------4--5------4--5--2--------|
|--b---(-)---------------|-(-)---b--.5r--b--.5rx---b--.5r==--b--r-----4---|
|-x-----9---x-9-x-9-x-7--|--x--9-------x-------9---------x-9-----5-5------|
|-x-----7---x-7-x-7-x----|--x--7-------x-------7---------x-7--------------|
|-x-----11---x-11-x-11-x-11--|--x--11-------x-------11---------x-11-----9-9------|
|---------------------9--|---------------------------------------7-7------|

|-------------------------------|
|-----------------------5-----5-|
|-----2-2-------4---2-----6-----|
|-4----b-.5---4---4---4-----4---|
|-x-9-x-----9---x---9---x-7---x-|
|-x-7-x-----7---x---7-----------|
|-x-11-x-----11---x---11---x-11---x-|
|-----------------------x-9---x-|
|-9-7-12-9S7-5-7-5---5-7S9-12-----12-|------------|
|------------------7-----------------|------------|
|------------------------------------|------------|
|-----------------------------7-4----|-4----------|
|-9-------x---x---5-------x---x---|-9----------|
|-7-------x---x-------------------|-7----------|
|-11-------x---x---9-------x---x---|-11----------|
|-----------------7-------x---x---|-8----------|
S
|---------------|----------|--------------|--------------|
|---------------|----------|--------------|--------------|
|-9-------------|----------|------9-------|------9-------|
|-7-------------|----------|------7-------|------7-------|
|--9\-----------|----------|-------9------|-------9------|
|--7\-----------|----------|-------7------|-------7------|
|--11------------|----------|-------11------|-------11------|
|---------------|----------|--------------|--------------|

|--------------|--------------|--------------|---------------|
|--------------|--------------|--------------|---------------|
|------9-------|------9-------|------9-------|------9--------|
|------7-------|------7-------|------7-------|------7--------|
|-------9------|-------9------|-------9------|-------9-------|
|-------7------|-------7------|-------7------|-------7-------|
|-------11------|-------11------|-------11------|-------11-------|
|--------------|--------------|--------------|---------------|
|-12-12-12-12-----12-|-7-9-12-------|----------|-12-12-12-12-----12-|-7-9-12-------|------|
|--------------7-----|----------10---|-7-(7)----|--------------7-----|--------------|------|
|--------------------|--------------|----------|--------------------|--------------|------|
|-7--7--7--7---9--7--|--------4-----|----------|-7--7--7--7---9--7--|--------4--7--|-4----|
|-5-5-5-5--7--5-|-7-9-12-------|----------|-5-5-5-5--7--5-|-7-9-12-------|------|
|---------------|----------10---|-7-(7)----|---------------|----------10---|-7----|
|-9-9-9-9--11--9-|--------------|----------|-9-9-9-9--11--9-|--------------|------|
|-7-7-7-7--9--7-|--------4-----|----------|-7-7-7-7--9--7-|--------4-----|------|
S
|--------------|----------|-----------------|
|-5------------|----------|---5-5-5-5-----5-|
|-2------------|----------|---2-2-2-2--4--2-|
|--------------|----------|------------4----|
S
|--------------|----------|-----------------|
|-5------------|----------|---5-5-5-5--7--5-|
|-2------------|----------|---2-2-2-2--4--2-|
|--------------|----------|---7-7-7-7--9--7-|
H P S
|----------------|------|--------------|------|
|-----5----------|------|-5------------|------|
|-4-6------2-4-2-|------|-2------------|------|
|-------4--------|-4----|--------------|------|
|-7-9-12----------|------|-5\-----------|------|
|----------10------|-7----|--------------|------|
|-----------------|------|-9------------|------|
|--------4--------|------|--------------|------|
|-12-12-12-12-----12-|-7-9-12-------|------|
|--------------7-----|----------10---|-7----|
|--------------------|--------------|------|
|-7--7--7--7---9--7--|--------4-----|------|
|-5-5-5-5--7--5-|-7-9-12-------|------|
|---------------|----------10---|-7----|
|-9-9-9-9--11--9-|--------------|------|
|-7-7-7-7--9--7-|--------4-----|------|
H H H P H H H P H H H P
|---------------|---------------|---------------|
|-------5---5---|-5-6-----------|-------2-4-2---|
|-4-5-6-------6-|-------2-4-2---|-2-3-4-------4-|
|---------4-----|-----4-------4-|---------------|
|-------5h7p5---|-7h8h9-12---12-9-|-12-------------|
|-5h6h7-------7-|-----------------|----------------|
|---------------|-----------------|----------------|
|---------------|----------4------|----3-4-7h9p7-4-|
H H H H H H H
|----------------------------|---------------|
|-2-3-4-3-4-5--4-5--6--------|--------------|
|----------------------------|--------------|
|-----------------------6-7--|-8--8--9--10---|
H H H H H H H
|----------------------------|--------------|
|----------------------5--6--|--------------|
|-2-3-4-3-4-5--4-5--6--------|--------------|
|----------------------------|-4--4--5--6---|
P H
|-----------------------------------------------------|--------------------------------------------------------|
|----------------------------------------|-------------------------------------------|
|----------------------------------------|-------------------------------------------|
|-11--11--11--11--11--11--12--11--11--11--11--11--11--|-9--11--11--11--11--11--11--12--11--11--11--11--11--11--|

|----------------------------------------|-------------------------------------------|
|----------------------------------------|-------------------------------------------|
|----------------------------------------|-------------------------------------------|
|-7--------7--------7-----------7--------|-7-----------7--------7--------------------|

|-----------------------------------------------|
|------------------------------------------|
|------------------------------------------|
|-12----12----12----12----12--7--9----7---------|

|----x----x----x----x-----x----x----x----x-|
|------------------------------------------|
|-7--x-7--x-7--x-7--x-7---x-7--x-7--x-7--x-|
|-7----9----7----9----7-----9----7----9----|
P P P s
|-----------------------------------------------|-----------------------------------------------|
|-----------------5-----5-----2-5---2-----------|--------------5---2----------------------------|
|-------------------------------------4-6-------|--4-----------------4--5---4--2------2----4-6--|
|-7----4--7--4-------4-----------------b--------|-(-)--------4---------b--r(-)----4-------------|
|-J--x-M---x-J--x-M---x-J--x-M---x-J--x----M--x-|--9--x-I--x-9--x-I--x------9--x-I--x-9-x-I---x-|
|-T--x-T---x-T--x-T---x-T--x-T---x-T--x----T--x-|--7--x--7-x-7--x--7-x------7--x--7-x-7-x--7--x-|
|-----------------------------------------------|-----------------------------------------------|
|-----------------------------------------------|-----------------------------------------------|
|--9--x----I--x--9--x----I--x--9--x----I--x--9--x--I--x-|
|--7--x-----7-x--7--x-----7-x--7--x-----7-x--7--x---7-x-|
|-------------------------------------------------------|
|-------------------------------------------------------|
H P H P H P
|------------------------------------------------------|-----------------------------------------------------|
|----------------------------------------------------|----------------------------------5--------------|
|----------------------------------------------------|-------------------------------------------------|
|-4----7--7--7--6--7--9--7--9--9--11----9--11----7--9--|-7--14--------12--------10--11--7--5----S4--7--9--7--|
|-J--x-M---x-J---x-M---x-J---x-M-----x-J-----x-M---x-|-J---x--M--x-J---x-M---x-J---x-M---x-J---x-M---x-|
|-T--x-T---x-T---x-T---x-T---x-T-----x-T-----x-T---x-|-T---x--T--x-T---x-T---x-T---x-T---x-T---x-T---x-|
|----------------------------------------------------|-------------------------------------------------|
|----------------------------------------------------|-------------------------------------------------|
P P
|-------------------------------------------------------------|
|---------------------------------------------------------|
|---------------------------------------------------------|
|-9--10----9--10----9--7--4--7--9--10----9--10----9--7--4--7--|

|-------x-------x-----x-----x-------x-------x-----x-----x-|
|---------------------------------------------------------|
|-7-----x-7-----x-7---x-7---x-7-----x-7-----x-7---x-7---x-|
|-7-------9-------7-----9-----7-------9-------7-----9-----|
H P H
|---------------------------------------------------|-------------------------------------------------------------------------------|
|---S==---------------5-------------------------|-----------------(--)-------------(--)-------------(--)-------------|
|-----------------------------------------------|--------------------------------------------------------------------|
|-14----12--10--11--7--5----S4--7--9----7--------9--|-9--11--------14----14--11--------14----14--11--------14----14--11--------14---|
|-J--x-M---x-J---x-M---x-J---x-M--x-J---x-M---x-|--9----x-I----x----9----x-I----x----9----x-I----x----9----x-I----x--|
|-T--x-T---x-T---x-T---x-T---x-T--x-T---x-T---x-|--7----x--7---x----7----x--7---x----7----x--7---x----7----x--7---x--|
|-----------------------------------------------|--------------------------------------------------------------------|
|-----------------------------------------------|--------------------------------------------------------------------|
|---9----x-I----x----9----x-I----x----9----x-I----x----9-----x-I----x--|
|---7----x--7---x----7----x--7---x----7----x--7---x----7-----x--7---x--|
|----------------------------------------------------------------------|
|----------------------------------------------------------------------|
H P H P H
|----------------------------------------------------|--------------------------------------------------------|
|-(--)----------------------------------------b---|-(--)--------------------------------------------|
|-------------------------------------------------|-------------------------------------------------|
|--14-----7----7----7--7--9--7--7----7----7--14--16--|--14-----14----13----12----10--11--7--5--7-------9--11--|
|--J---x-M--x-J--x-M---x-J---x-M--x-J--x-M---x----|--J---x-M--x-J--x-M--x-J---x-M---x-J--x-M---x----|
|--T---x-T--x-T--x-T---x-T---x-T--x-T--x-T---x----|--T---x-T--x-T--x-T--x-T---x-T---x-T--x-T---x----|
|-------------------------------------------------|-------------------------------------------------|
|-------------------------------------------------|-------------------------------------------------|
|---9---x-I--------x---9--x--I----x--9--x-I--------x---9--x--I----x-|
|---7---x--7-------x---7--x---7---x--7--x--7-------x---7--x---7---x-|
|-------------------------------------------------------------------|
|-------------------------------------------------------------------|
|--9--x-I--------x---9--x--I----x--9-x-I--x--9-x-I-----x-|-J------x--M----x-----J----x--M------x--J----x-----M----x--J------x--M---x-|
|--7--x--7-------x---7--x---7---x--7-x--7-x--7-x--7----x-|-T------x--T----x-----T----x--T------x--T----x-----T----x--T------x--T---x-|
|--------------------------------------------------------|---------------------------------------------------------------------------|
|--------------------------------------------------------|---------------------------------------------------------------------------|
|-J------x--M----x-----J----x--M--------x--J----x--M--x-J---x-M--x-|
|-T------x--T----x-----T----x--T--------x--T----x--T--x-T---x-T--x-|
|------------------------------------------------------------------|
|------------------------------------------------------------------|
H H H P P
|-----------------------------------------------------------------|----------------------------------------------------------------|
|---S---------------------------------------------|-----------S----------------------------------------------|
|-------------------------------------------------|----------------------------------------------------------|
|-14--16--16--16--16--16--16--16--14--16--16--16--14--16--16--16--|-14--16----14--11--9--7--9--7--9--11----9----14---9----7--4--7--|
|--9--x-I---x--9--x-I---x--9--x-I---x--9--x-I---x-|-----9-x-I---x--9--x-I---x--9-------x---I----x-9--x-I---x-|
|--7--x--7--x--7--x--7--x--7--x--7--x--7--x--7--x-|-----7-x--7--x--7--x--7--x--7-------x----7---x-7--x--7--x-|
|-------------------------------------------------|----------------------------------------------------------|
|-------------------------------------------------|----------------------------------------------------------|
|-J------x-M--x--J----x--M---x-J--x-M--x-J--x-M--x----|
|-T------x-T--x--T----x--T---x-T--x-T--x-T--x-T--x----|
|-----------------------------------------------------|
|-----------------------------------------------------|
|-J------x-M--x--J----x--M---x-J---x-M--x-J--x-M--x-|
|-T------x-T--x--T----x--T---x-T---x-T--x-T--x-T--x-|
|---------------------------------------------------|
|---------------------------------------------------|

|----------------------------------------|----------------------------------|
|------5--2---5---2---5--2------2--------|--------5------5-------5-4-3--2---|
|-------------------4-------4-2---4--2---|-4-2------2------6-3--------------|
|-7--4------4--------------------------4-|------4-----4--------6------------|
|--9-x-11--x-9--x-11--x--9-x-11--x-9-x-11--x-|-9-x-11--x-9-x-11--x---12-9-8-7------|
|--7-x--7-x-7--x--7-x--7-x--7-x-7-x--7-x-|-7-x--7-x-7-x--7-x------------10----|
|----------------------------------------|-----------------------------------|
|----------------------------------------|-------------------4---------------|

|--------------------|--------------------|
|-------4-5---4-5----|-------4-5---4-4-2--|
|-3--3---------------|-3--3---------------|
|-----------6-----6--|-----------6--------|
|-------7-9-12-7-9-12--|-------7-9-12-7---12--|
|-7--------------------|-7--------------------|
|----------------------|----------------------|
|----4-----------------|----4-----------4-----|
s
|--------------------|-----------------------|
|-------4-5---4-5----|--------5--------------|
|-3--3---------------|-1--4-6---------4-2----|
|-----------6-----6--|----------4-6----------|
|-------7-9-12-7-9-12--|--------7-9-12-----12----|
|-7--------------------|-5--7s9------------------|
|----------------------|-------------------------|
|----4-----------------|-----------------4-------|

|-----------------------|------------------------|
|-----------------------|--------------------5---|
|-6--6--------4------4--|-6--6--------4----------|
|--------4-6----4-6-----|--------4-6----4-4------|
|--------7--9-12-7--9-12--|--------7--9-12-7-----12--|
|-7-----------------------|-7------------------------|
|-------------------------|--------------------------|
|-----4-------------------|-----4-------------4------|
s
|--------------------|--------------------|
|-------4-5---4-5----|--------5-----------|
|-3--3---------------|-1--4-6--------2----|
|-----------6-----6--|----------4-6-------|
|-------7-9-12-7-9-12--|--------7-9-12-------|
|-7--------------------|-5--7s9--------------|
|----------------------|---------------------|
|----4-----------------|----------------3----|
S
|--------------|----------|-----------------|
|--------------|----------|---5-5-5-5-----5-|
|-3------------|----------|---2-2-2-2--4--2-|
|--------------|----------|------------4----|
S
|--------------|----------|-----------------|
|--------------|----------|---5-5-5-5--7--5-|
|--------------|----------|---2-2-2-2--4--2-|
|-4------------|----------|---7-7-7-7--9--7-|
H P S
|----------------|------|--------------|------|
|-----5----------|------|-5------------|------|
|-4-6------2-4-2-|------|-2------------|------|
|-------4--------|-4----|--------------|------|
|-7-9-12----------|------|-5\-----------|------|
|----------10------|-7----|--------------|------|
|-----------------|------|-9------------|------|
|--------4--------|------|--------------|------|
|-12-12-12-12-----12-|-7-9-12-------|------|
|--------------7-----|----------10---|-7----|
|--------------------|--------------|------|
|-7--7--7--7---9--7--|--------4-----|------|
|-5-5-5-5--7--5-|-7-9-12-------|------|
|---------------|----------10---|-7----|
|-9-9-9-9--11--9-|--------------|------|
|-7-7-7-7--9--7-|--------4-----|------|
H H H P H H H P H H H P H H H H H H H
|---------------|---------------|---------------|----------------------------|
|-------5---5---|-5-6-----------|-------2-4-2---|-2-3-4-3-4-5--4-5--6--------|
|-4-5-6-------6-|-------2-4-2---|-2-3-4-------4-|----------------------------|
|---------4-----|-----4-------4-|---------------|-----------------------6-7--|
H H H P H H H P H H H P H H H H H H H
|---------------|---------------|---------------|----------------------------|
|-5-6-----------|-------5---5---|-5-6-----------|----------------------5--6--|
|-------2-4-2---|-4-5-6-------6-|-------2-4-2---|-2-3-4-3-4-5--4-5--6--------|
|-----4-------4-|---------4-----|-----4-------4-|----------------------------|

|---------------------|
|---------------------|
|---------------------|
|-4---4---4---4-------|
P H P H P H P H P H P H P H P H P S
|----------------------------------------------------------------------|
|------------------------------------------------------------|
|------------------------------------------------------------|
|-11--8--11--8--11--8--11--8--11--8--11--8--11--8--11--8--11--8--11----|
S
|------------------------------------------------------------|
|------------------------------------------------------------|
|------------------------------------------------------------|
|-4-----------------4-----------------4-----------------4----|

|------------|--------------|--------------|
|------------|--------------|--------------|
|------------|------9-------|------9-------|
|------------|------7-------|------7-------|
|------------|-------9------|-------9------|
|------------|-------7------|-------7------|
|------------|-------11------|-------11------|
|------------|--------------|--------------|

|--------------|--------------|--------------|-----------------------|
|--------------|--------------|--------------|-----------------------|
|------9-------|------9-------|------9-------|------9--9-------------|
|------7-------|------7-------|------7-------|------7--7-----4--7----|
|-------9------|-------9------|-------9------|-------9-12---x--9------|
|-------7------|-------7------|-------7------|-------7-10---x--7------|
|-------11------|-------11------|-------11------|-------11-14---x--11------|
|--------------|--------------|--------------|-----------------------|
|--9-------------------|-(9)------------------------------|
|--7-------------------|-(7)------------------------------|
|--11-------------------|-(11)------------------------------|
|----------------------|----------------------------------|

 

乐谱评价 (0)
暂时没有评价. :(
需要帮助,你有一个小费分享,或只是想谈谈这首歌? 开始讨论!

您必须登录才能加入讨论
要么 注册

 

关于这首歌

没有这首歌的信息.