Paranoid Android Uke乐谱通过 Radiohead

15 在歌曲中使用的和弦 :

添加乐谱到您的歌本里

为Baritone浏览这些和弦

Transpose chords:
Tablature / ChordsFont size: A- A A+

不明白什么是乐谱和弦?请您浏览这些uke课程:


INTRO:

A------10--------10--- -------10---------10--- ||----5---------5------5---5
E--8-8-----8-6-6------ ----------------------- ||3-3-----3-1-1----1-0------
C--------------------- ------------9-9-9------ ||--------------------------
G---------8---------8- -10-10----8----------8- ||------3---------3------3--

A------------| |
E------------|*|
C------------|*|
G--2--2-2-2-0| |(repeat this bar twice at the end of each phrase)


WHAT'S THAT:

A------7- -----7- - --- -7- ---- -7- - --- -7- --- -7-
E--3-------3------- -1--------1------- - ------- ------
C------------------ ------------------ ----------------
G----3-------3----- ------------------ ----------------


AMBITION MAKES...:

A-- - -3- ----- -3- - - - -3- ----- --- --- -
E---------- - ------- --------- - --- --- ---
C-------------------- -----------------------
G-------------------- -----------------------

C chordC, G# chordG#, A# chordA#, C chordC

YOU DON'T REMEMBER:

A--x-x------12- -0-0-3-0-----0-3-5(bend)- -12-0-0-3-0-----0-3-
E--x-x--------- --------- - ------------- ------------- - ---
C--x-x--------- ------------------------- -------------------
G--x-x--------- ------------------------- -------------------

You xxxx why xxxx off man why xxxx


C chordC, G# chordG#, A# chordA#, C chordC (then) C/B chordC/B/A#/A
he does

SOLO:

||A-3-3-3-3-3-3-3-3-3-3-3-3-3-3(bend)| |
||E----------------------------------|*|
||C----------------------------------|*|
||G----------------------------------| |


A--3---3---3---3--- A--3- -3- -3- -3- -3- -3- -3
||E--------1-------1-|*| E----------------------------
||C------------------|*| C----------------------------
G---- ------- ----- G---------------------------


A------------------ ----------- --------------- ----------
E--1/3- -7- -7- -3- - - - - - - -3- -7- -7- -3- - - - - --
C------------------ ----------- --------------- ---------
G------------------ ----------- --------------- ----------

C/B chordC/B/A#/A...

RAIN
DOWN :
Cm chordCm, G chordG, Gm chordGm, A chordA
Dm chordDm, A chordA, Dm chordDm, F chordF
A# chordA#, Am chordAm,Gm chordGm, F chordF
E chordE, Am chordAm (last chord is E7 chordE7 instead of Em chordEm)

Repeat "You don't remember"

C/B chordC/B/A#/A...

 

乐谱评价 (3)
您必须登录才能加入讨论
要么 注册

 

b0$$ avatar
flag for US(ISO2) (Johns Creek)
i can play 4 notes....... YAY
16 Feb 2012
RookieUkePlayer avatar
Sorry, the tab got messed up when it was refitted to fit the page. I might fix the tab if I have time
17 Jan 2012
lasarack avatar
pretty close to what i thought.
20 Jul 2011
关于这首歌

没有这首歌的信息.