No Surprises Uke乐谱通过 Radiohead

Ukulele乐谱没有和弦.

添加乐谱到您的歌本里
Tablature / ChordsFont size: A- A A+

不明白什么是乐谱和弦?请您浏览这些uke课程:

A|-------------------------------------------|--------------|
E|-------------------------------------|6-----------|
C|-------------------------------------|------------|
G|-14--5--10--5--14--5--10--5--14--5--10--5--|---6--10--12--|

A|---------------------------------------------------------|
E|----6-----6-----6-----6-----6-----6-----6-----6--|
C|-------------------------------------------------|
G|-14-----10-----14-----10-----14-----10-----14-----10-----|
H
A|---------------------------------------------------------|
E|----------------------------------------------6--|
C|-------------------------------------------------|
G|-15--7--10--7--15--7--10--7--10--9--5--12--12--14--5-----|
H
A|-----------------------------------------------------|
E|----------6--6--------------------6-----6-----|
C|----------------12--12--10-----------------------|
G|-7--5--5--------14--14--12--12--12--14-----5-----10--|

A|-------------------------------------------------------|
E|----------6--6--------------------------------|
C|----------------12--12--10-----------------------|
G|-7--5--5--------14--14--12--12--12--12--10--12--9--12--|
H
A|-----------------------------------------------------|
E|----------6--6--------------------6-----6-----|
C|----------------12--12--10-----------------------|
G|-7--5--5--------14--14--12--12--12--14-----5-----10--|
P
A|-----------------------------|
E|-------------------------|
C|-------------------------|
G|-9--12--9--12--10--9--5--12--|
P
A|------------------------------------------------------------------------------|
E|----6--6--------------------------6-----------6--------------------|
C|-------------------------------------------------------------------|
G|-5--------6--10--17--15--10--6--12--12-----12--10--7-----5--6--8--10--12--10--|
P
A|------------------------------------------------------------------|
E|----------------------6-----------6--------------------|
C|-------------------------------------------------------|
G|-10--17--15--10--6--12--12-----12--10--7-----5--6--8--10--12--10--|

 

乐谱评价 (0)
暂时没有评价. :(
需要帮助,你有一个小费分享,或只是想谈谈这首歌? 开始讨论!

您必须登录才能加入讨论
要么 注册

 

关于这首歌

没有这首歌的信息.