Bohemian Rhapsody Uke乐谱通过 Queen

18 在歌曲中使用的和弦: Am,C7,F,Dm,G,C#,C,B,Dm7,G7,Gm,Bbm,Eb,E,Bb,D,F#,Bbmaj7

添加乐谱到您的歌本里
Tablature / ChordsFont size: A- A A+

不明白什么是乐谱和弦?请您浏览这些uke课程:

# Intro:

|-0-0-0-0--0----|-0-0-------------|-2-2-2-4--2---|-3-3-5-3-----|
|-3-3-3-3--3----|-2-2-3--2--0-----|-3-3-3-5--3---|-3-3-5-3-----|
|-1-1-1-1--1----|-0-0----0-----2--|-2-2-2-4--2---|-0-0---0-4-2-|
|-2-2-2-2--2----|-2-2----2--------|-0-0-0--------|-0-0---------|
Is this the...

Am Am C7 C7 F F
|-0-0-----0-------|-1-1---------0-|-0-----0-5-8-3-8-|
|-0-0-1-0-----0---|-0-0-1-3-------|-1---1---6---5---|
|-0-0-------0---0-|-0-0-0-----0---|-0-0-----5---0---|
|-2-2-------------|-0-0-0---------|-2---------------|
Open your eyes...

Dm Dm G G C# C# C C B B C C C# C# C C B B C C
|-0-0-0--0--0--|-2---0---------|-4-4-3--2-2-3--|-4-4-3--2-2-3--|
|-1------1-----|-3-3---3--1----|-4-4-3--2-2-3--|-4-4-3--2-2-3--|
|-2------2-----|-2-2--------2--|-5-5-4--3-3-4--|-5-5-4--3-3-4--|
|-2------2-----|-0-0-----------|---------------|---------------|
I'm just a...

F F
|-0-0-0-0-----3--|-3-3-3-3-2------|-2-----2-5--2-3-|
|-1---1---3---3--|-2---2---1--1---|-1---1---7------|
|-0---0---0-0-0--|-3---3---2----2-|-2-2-----5------|
|-2---2---0---0--|-2---2---0------|-0-------0------|
Any way the...

|-3----------------|-3----------------|
|-0---0-3-/5---3---|-0---0-3-/5---3---|
|-0-0--------0---0-|-0-0--------0---0-|
|-0----------------|-0----------------|
...me




1st Verse:

C C Am Am Dm7 Dm7 G7 G7
|-3---------------|-0------------------|-0-------0-------|-0-------2-----2-|
|-0-0-3--/5---3---|-0-0-0---/7---5---0-|-1-3-1-0-1-----0-|-1-3-1-0-1---1---|
|-0-----0---0---0-|-2------0---0----2--|-2-------2---2---|-0-------2-2-----|
|-0---------------|-2------------------|-2-------2-2-----|-2-------0-------|

Mama, just killed...

C C Am Am Dm7 Dm7
|-3---------------|-2-0-0-------------0-|-3-3-3-3-3-0-0-----|-0-0--(0)-(0)-|
|-0-0-3--/5---0-3-|-0--------/7---5-----|-1-----1-1---1---0-|-1-1-1---0----|
|-0-----0---0-----|-0------0----0---0---|-2-----2-1---0-----|-2-2-1---0----|
|-0---------------|-2-------------------|-------------------|-4-4-3---2----|
Mama, life had...

F F Dm Dm Gm Gm
|-0-0-0---0-----0-1-|-0-----0-/7---5--0-0-|-1---0-0-----1--1-------|
|-1---1---1---3-----|-1---1---------------|-3-------3-3-3--3-------|
|-0---0-0-0-0-0-----|-2-2-------(2)-------|-2-----------5--4--2----|
|-2---2---2---2-----|-2-------------------|-0-----------0--0-------|
Mama, oo-o-o-ooh...

C C F F Dm Dm Bbm Bbm
|-3---3-0-1-1-1-1-3-|-1-0--0---0-3---3---0-|-0-0-----1----------|
|-0-3-3---3---3-----|-1----1-3---0---0-3---|-1-1-----1----------|
|-0---0---0---0-----|-0----0-----0-0-0-----|-2-2-0-0-1-3-1-3--0-|
|-0---0---0---0-----|-2----2-----0---0-----|-2-2-----3----------|
...I'm not back...

F F C C
|-0-----0-|-5-8-3-8-2-8---8-|-3----------------|-3------------------|
|-1---1---|-6---5---4---6---|-0---0-3-/5---3---|-0---0-3-/5---3-----|
|-0-0-----|-5-----------7---|-0-0--------0---0-|-0-0--------0---0---|
|-2-------|-----------------|-0----------------|-0------------------|
...matters




2nd Verse:

C C Am Am Dm7 Dm7 G7 G7
|-3---------------|-0-------------------|-0-------0-------|-0-------2-----2-|
|-0-0-3--/5---3---|-0-0-0---/7---5----0-|-1-3-1-0-1-----0-|-1-3-1-0-1---1---|
|-0-----0---0---0-|-2------0---0----2---|-2-------2---2---|-0-------2-2-----|
|-0---------------|-2-------------------|-2-------2-2-----|-2-------0-------|
Too late my time...

C C Am Am
|-3-------------------|-2-0-0-------------0-|
|-0-0---------0---0-3-|-0---0----/7---5-3---|
|-0-----2-0-2---------|-0---0--0----0-------|
|-0-------------------|-2---2---------------|
Goodbye, everybody...

Dm7 Dm7
|-3-3-3-3-3-0-0----|-0--0---(0)-(0)---|
|-1-----1-1---1--0-|-1--1--1---0------|
|-2-----2-1---0----|-2--2--1---0------|
|------------------|-4--4--3---2------|
...leave you all...

F F Dm Dm Gm Gm
|-0-0-0---0-----0-1-|-0-----0-/7---5----|-1--0-0-----1--1-------|
|-1---1---1---3-----|-1---1-------------|-3------3-3-3--3-------|
|-0---0-0-0-0-0-----|-2-2-------(2)-(2)-|-2----------5--4--2----|
|-2---2---2---2-----|-2-----------------|-0----------0--0-------|
Mama, oo-o-o-ooh

C C F F C C Dm Dm
|-3---3-0-1-1-1-1-3-|-1-0--0---0-3---3-0-3-|-5--5---5-7-8-5-7-8----|
|-0-3-3---3---3-----|-1----1-3---0---0-----|-5--5---5-----5--------|
|-0---0---0---0-----|-0----0-----0-0-0-----|-5--5---5-----5--------|
|-0---0---0---0-----|-2----2-----0---0-----|-----------------------|
Sometimes wish...

Gm Gm C C
|-1---1--1--1--1--|-3---3-3-3---3-3-3---3-3-3---3-3-| (just some strumming
|-3---3--2--1--0--|-0---0-0-0---0-0-0---0-0-0---0-0-| during the guitar solo)
|-2---2--2--2--2--|-0---0-0-0---0-0-0---0-0-0---0-0-|
|-0---0--0-(3)(3)-|-0---0-0-0---0-0-0---0-0-0---0-0-|


F F C C Dm Dm Gm Gm
|-0---0-0-0---0-0-3---3-3-3---3-3-|-0---0-0-0---0-0-0---0-0-0---0-0-|-1---1-1-1--1--|
|-1---1-1-1---1-1-0---0-0-0---0-0-|-1---1-1-1---1-1-1---1-1-1---1-1-|-3---3-2-1--0--|
|-0---0-0-0---0-0-0---0-0-0---0-0-|-2---2-2-2---2-2-2---2-2-2---2-2-|-2---2-2-2--2--|
|-2---2-2-2---2-2-0---0-0-0---0-0-|-2---2-2-2---2-2-2---2-2-2---2-2-|-0---0-0(3)(3)-|


Eb Eb B B
|-1--1-1-1--1--|-2--2--2--2--|-2--2--2--2----|
|-3--3-3-3--0--|-2--2--2--2--|-2--2--2--2----|
|-3--3-2-1--0--|-3--3--3--3--|-3--3--3--3----|
|-0--0-0-0--0--|-4--4--4--4--|-4--4--4--4----|




# The insane duet part:

E E B B Bb Bb B B E E B B Bb Bb B B E E B B E E B B Bb Bb B B E E B B
|-2--2-2-1-1-2--|-2--2-2-1-1-2-2-|-7--2-2-7--2-2-|-1-1-2--2--2--|
|-4--2-2-1-1-2--|-4--2-2-1-1-2-2-|-4--2-2-4--2-2-|-1-1-2--4--2--|
|-4--3-3-2-2-3--|-4--3-3-2-2-3-3-|-4--3-3-4--3-3-|-2-2-3--4--3--|
|---------------|----------------|---------------|--------------|
I see a little...

Eb Eb Bb Bb D D F# F# B B
|-1-1-1-1-1--1--|-0-0-0-0-1--1--|-2--9-9-11-9-----|-----9-9-11-9-----|
|-3-3-3-3-1--1--|-2-2-2-2-2--2--|-2-----------7-7-|-9-7----------7-7-|
|-3-3-3-3-2--2--|-2-2-2-2-1--1--|-3---------------|------------------|
|-0-0-0-0-3--3--|-2-2-2-2-------|(4)--------------|------------------|
Thunderbolt and lightning...

F F
|-----9-9-11-9-7-6-|-4---3-3-|-3-0--------0----|
|-9-7--------------|---------|-1----1-----1----|
|------------------|---0-----|-0-------2--0----|
|------------------|---------|-2----------2----|
le-o, galileo figaro magnifico




# Ending & outro:

Dm Dm Bbmaj7 Bbmaj7 F F
|-0-----0--------|-0--------------|-0-----0-5-7-5-7-|-3-----0-5-7-5-7-|
|-1-1-3---1------|-1-3-3-1-1----3-|-1---1---6---6---|-1---1---4---4---|
|-2-------1-1----|-2-------2-2----|-0-0-----5---5---|-0-0-----4---4---|
|-2-------3------|-3-------3------|-2---------------|-----------------|
Nothing really matters...

C D Am/5- D G
|-3-----3-3-5-3-5-|-0-----0-3-------|-0-------2-----2-|
|-0---0---3---3---|-2---2---5-6-6-5-|-2-2-----3---3---|
|-0-0-----3---3---|-2-2-----3-------|-2---2-0-2-2-----|
|-0---------------|-2---------------|-2-------0-------|


|-7-10-5-10-4-10---10-|-10----|
|-8----7----6----8----|--7----|
|-7--------------9----|--7----|
|---------------------|--7----|


# The tab to the actual song

 

乐谱评价 (5)
您必须登录才能加入讨论
要么 注册

 

Dadio910 avatar
very nicely done. a little confusing in parts but then again so is the song itslef
20 Mar 2013
the_saint avatar
flag for US(ISO2) (Rancho Santa Margarita)
Is this even in the right key??
17 Apr 2012
BigUkeManny avatar
flag for US(ISO2) (Cummings)
well done
10 Mar 2010
monicamoaf avatar
flag for US(ISO2) (coral springs)
wonderful! :)
10 Mar 2010
smeshbesher avatar
flag for US(ISO2) (Minnetonka)
put chords on
10 Mar 2010
关于这首歌

没有这首歌的信息.