If This Tour Doesn't Kill You (独奏) Uke乐谱通过 PUP

Ukulele乐谱没有和弦.

添加乐谱到您的歌本里
Tablature / ChordsFont size: A- A A+

不明白什么是乐谱和弦?请您浏览这些uke课程:

s          H                         s          H                     s            
Ab|-------------------------------------|---------------------------------------------|
Eb|-----3-----------------------5-------|----3-----------------------5--3------5--3---|
Cb|---4---------------------------------|--4------------------------------------------|
Gb|-------4---4--5-4---9--7--4-------4--|------4---4--5-4---9--7--4---------4---------|
s H s H
Ab|-------------------------------------|--------------------------------------|
Eb|-----3-----------------------5-------|----3------------------------5----5---|
Cb|---4---------------------------------|--4-----------------------------------|
Gb|-------4---4--5-4---9--7--4-------4--|------4---4--5-4---9--9--9------------|

 

乐谱评价 (0)
暂时没有评价. :(
需要帮助,你有一个小费分享,或只是想谈谈这首歌? 开始讨论!

您必须登录才能加入讨论
要么 注册

 

关于这首歌

没有这首歌的信息.