Guilt Trip (介绍) Uke乐谱通过 PUP

5 在歌曲中使用的和弦: F, Cmaj7, G, Am, C

添加乐谱到您的歌本里
Tablature / ChordsFont size: A- A A+

不明白什么是乐谱和弦?请您浏览这些uke课程:

F F Cmaj7 Cmaj7 x2
F F

A|--0--2--0-----4--5--2--0----------------|
E|-----------2----------------------------|
C|----------------------------------------|
G|----------------------------------------|

A|--0--2--0-----4--5--7--0----------------|
E|-----------2----------------------------|
C|----------------------------------------|
G|----------------------------------------|

x2



G G Am Am C C
How many times have you lied to my face

G G Am Am G G C C
I can't confront you and it's better that way

G G Am Am C C
And how many bulbs must I break

G G Am Am G G C C
'Till all my filaments rust and decay




Am Am F F Am Am
And I can't explain

G G Am Am C C
Anything anymore anyway



#not finished

 

乐谱评价 (0)
暂时没有评价. :(
需要帮助,你有一个小费分享,或只是想谈谈这首歌? 开始讨论!

您必须登录才能加入讨论
要么 注册

 

关于这首歌

没有这首歌的信息.