Death Bed Uke乐谱通过 Powfu

Ukulele乐谱没有和弦.

添加乐谱到您的歌本里
Tablature / ChordsFont size: A- A A+

不明白什么是乐谱和弦?请您浏览这些uke课程:

A|-7--10--7--10/12--7----7--10--------------|
E|-0---------------------7--10--------------|
C|-0---------------------7------------------|
G|-0---------------------7------------------|



A|-10--7----------5-----5--7----------------|
E|-7------10--8---5--8----------------------|
C|-7--------------5-------------------------|
G|-7--------------5-------------------------|



A|-10--7-5---5--8/10--7-5--------------------|
E|-5-------8----------5-5--------------------|
C|-5------------------5-5--------------------|
G|-5------------------5-5--------------------|

 

乐谱评价 (0)
暂时没有评价. :(
需要帮助,你有一个小费分享,或只是想谈谈这首歌? 开始讨论!

您必须登录才能加入讨论
要么 注册

 

关于这首歌

没有这首歌的信息.