Death Bed Uke乐谱通过 Powfu

Ukulele乐谱没有和弦.

添加乐谱到您的歌本里
Tablature / ChordsFont size: A- A A+

不明白什么是乐谱和弦?请您浏览这些uke课程:

E|-7-10-10-7---7-12-7---7-10-10----
A|-----------------------------10--
C|---------------------------------
G|---------------------------------

E|-10-7--------------7-------------
A|-----10-8-10-8-8-10--------------
C|---------------------------------
G|---------------------------------

E|-10-7-------10-10-7---5-3--------
A|-----10-8-10---------------------
C|---------------------------------
G|---------------------------------

 

乐谱评价 (1)
您必须登录才能加入讨论
要么 注册

 

Avie_Cakes avatar
I have one thing... the tuning is

A
E
C
G

in terms gcea
not gcae
07 Jun 2020
关于这首歌

没有这首歌的信息.