Up Theme Song Uke乐谱通过 Pixar's

Ukulele乐谱没有和弦.

添加乐谱到您的歌本里
Tablature / ChordsFont size: A- A A+

不明白什么是乐谱和弦?请您浏览这些uke课程:

A|-8--12--8--7---8--12-----------8---------------------12--10------12--10
E|----------------------10---10-----10--8---8--10--8--10-------10--10----
C|-----------------------------------------------------------------------
G|-----------------------------------------------------------------------

A|-8--------8--10--8--7---7--10--7--------7----------------------------5--7-----------7
E|----10-----------------------------8--8-----8--6---6--8--6---5--6--8-----------------
C|-------------------------------------------------------------------------------------
G|-------------------------------------------------------------------------------------

 

乐谱评价 (0)
暂时没有评价. :(
需要帮助,你有一个小费分享,或只是想谈谈这首歌? 开始讨论!

您必须登录才能加入讨论
要么 注册

 

关于这首歌

没有这首歌的信息.