Dance Of The Sugar Plum Fairy Uke乐谱通过 Peter Ilyich Tchaikovsky

Ukulele乐谱没有和弦.

添加乐谱到您的歌本里
Tablature / ChordsFont size: A- A A+

不明白什么是乐谱和弦?请您浏览这些uke课程:

A|----10-7--10--9--|-6--7--5-5--5--|-4-4--4--3-3--|---7---7----|
E|----7------7--8--|-5--6--4-4--4--|-3-3--3--5-5--|-7---8---7--|
C|--------------9--|-6--7--5-5--5--|-4-4--4--3-3--|-7---9---7--|
G|-9---------------|---------------|--------------|------------|



A|---------------|-3--2--10-10--10--|-9-9--9--7-7--7--|-6-9-7-9--6--|
E|----3----3--5--|-5--3---9-9---9---|-8-8--8--6-6--6--|-7---6----7--|
C|-4----4--4--3--|-3--4--10-10--10--|-9-9--9--6-6--6--|-6---6----6--|
G|---------------|------------------|---------6-6--6--|-----6-------|



A|----10-7--10--9--|-6--7--5-5--5--|-4-4--4--3-3--3--|---7---7----|
E|----7-----7---8--|-5--6--4-4--4--|-3-3--3--5-5--5--|-7---8----7-|
C|--------------9--|-6--7--5-5--5--|-4-4--4--3-3--3--|-7---9----7-|
G|-9---------------|---------------|-----------------|------------|



A|----7----7--6--|----5----5--4--|----3----3--2--|----2--2----|
E|----6-6--6--5--|----4-4--4--5--|----2-2--2--3--|----2--3----|
C|----7-7--7--6--|----4-4--4--4--|----2-2--2--2--|----3--4----|
G|----6-6--6--5--|----4-4--4--6--|----2-2--2--4--|----2--0----|

 

乐谱评价 (0)
暂时没有评价. :(
需要帮助,你有一个小费分享,或只是想谈谈这首歌? 开始讨论!

您必须登录才能加入讨论
要么 注册

 

关于这首歌

没有这首歌的信息.