The Book Of Love (介绍) Uke乐谱通过 Peter Gabriel

Ukulele乐谱没有和弦.

添加乐谱到您的歌本里
Tablature / ChordsFont size: A- A A+

不明白什么是乐谱和弦?请您浏览这些uke课程:

A|-2--2---3--3---2--0---0--2--------------|
E|-3--3---3--3---3--3---3--3--------------|
C|----------------------------------------|
G|----------------------------------------|

A|-2--3---3--3---2--0---------------------|
E|-3--3---3--3---3--3---3-----------------|
C|----------------------------------------|
G|----------------------------------------|

A|-2--2---3--3---2--0---0--2--------------|
E|-3--3---3--3---3--3---3--3--------------|
C|----------------------------------------|
G|----------------------------------------|

A|----0--0---2---0--0---------------------|
E|-3--------------------3---3-------------|
C|----------------------------------------|
G|----------------------------------------|

A|-5-2-3---2--0--0--2---2--2--3---3--0--2-|
E|-3-3-3---3--3--3--3---3--3--3---3--3--3-|
C|----------------------------------------|
G|----------------------------------------|

A|-5-2-3---2--0--0--2---------------------|
E|-3-3-3---3--3--3--3---------------------|
C|----------------------------------------|
G|----------------------------------------|

A|----0--0---2---0------------------------|
E|-3-----------------3--3-----------------|
C|----------------------------------------|
G|----------------------------------------|

 

乐谱评价 (1)
您必须登录才能加入讨论
要么 注册

 

SaffyJoy avatar
flag for US(ISO2) (Arundel)
awesome! guessing you watch scrubs? great tab, and great cover of the original song "The Book of Love" by The Magnetic Fields
07 Sep 2013
关于这首歌

没有这首歌的信息.