Solsbury Hill (介绍) Uke乐谱通过 Peter Gabriel

Ukulele乐谱没有和弦.

添加乐谱到您的歌本里
Tablature / ChordsFont size: A- A A+

不明白什么是乐谱和弦?请您浏览这些uke课程:

H                                                       
A--------4---6-7--7--6-------------|--7--6--4-----------------------|
E--2--2------2-4--4--2-------------|--4--2--2-----------------------|
C----------------------------------|--------------------------------|
G--3--4--3---4----4--4-------------|--4--4--3-----------------------|

A--------4---7--9--6---------------|--7--6--4-----------------------|
E--2--2------4--4--2---------------|--4--2--2-----------------------|
C----------------------------------|--------------------------------|
G--3--4--3---4--4--4---------------|--4--4--3-----------------------|

A--------4---6---4------------------------------|
E--2--2------2---2---2--2-----------------------|
C-----------------------------------------------|
G--3--4--3---4---3---4--4-----------------------|

 

乐谱评价 (0)
暂时没有评价. :(
需要帮助,你有一个小费分享,或只是想谈谈这首歌? 开始讨论!

您必须登录才能加入讨论
要么 注册

 

关于这首歌

没有这首歌的信息.