Just Like You Imagined Uke乐谱通过 Nine Inch Nails

6 在歌曲中使用的和弦: Dm, F, Gm, Bb, C, D

添加乐谱到您的歌本里
Tablature / ChordsFont size: A- A A+

不明白什么是乐谱和弦?请您浏览这些uke课程:

# Ideal for a duo or a group of ukes

# Intro

Dm Dm

A|-0-------------------0---|
E|-------1---0-------------|
C|----------------2--------|
G|-------------------------|


Dm Dm F F Gm Gm Bb Bb C C # along all the song

# Song riffs; play them in any order/combination

A|----------------1--3-----|
E|---------1-1--3----------|
C|-2-222-2-----------------|
G|-------------------------|


A|-------------------------|
E|-------11333/5-5-6655-5--|
C|-2-222-------------------|
G|-------------------------|


A|-5------5------8---5-----|
E|--5------5---------------|
C|---2------2--------------|
G|-------------------------|


A|----------------------------|
E|---------55-666-7-7-8-8888--|
C|-2-222----------------------|
G|----------------------------|


A|-----------------3-55555555-|
E|----------------------------|
C|----------------------------|
G|----------------------------|

# Vocal part (no chord background)

A|----------------------------------|
E|--------------111111111111111111--|
C|-2222222222222222222222222222222--|
G|----------------------------------|

# Then

Dm Dm F F Gm Gm Bb Bb C C

A|----------0-1-0-------0-------|
E|----------------3---3---3-1---|
C|-2-222-2----------------------|
G|------------------------------|

# End with chords only

Dm Dm F F Gm Gm Bb Bb C C

# Enjoy! :D

 

乐谱评价 (0)
暂时没有评价. :(
需要帮助,你有一个小费分享,或只是想谈谈这首歌? 开始讨论!

您必须登录才能加入讨论
要么 注册

 

关于这首歌

没有这首歌的信息.