Killing Saturday Night Uke乐谱通过 Nim Vind

5 在歌曲中使用的和弦: D, F#, Bm, A, G

添加乐谱到您的歌本里
Tablature / ChordsFont size: A- A A+

不明白什么是乐谱和弦?请您浏览这些uke课程:

Intro 
D D
A|---------------------------------|
E|---------------------------------|
C|-2-2-2-1-2-2-2-1-2-2-2-1-2-2-2-1-|
G|---------------------------------|\
F# F# \
A|---------------------------------| \
E|---------------------------------| \
C|-2-2-2-1-2-2-2-1-2-2-2-1-2-2-2-1-| \
G|---------------------------------| \
Bm Bm A A 2x
A|---------------------------------| /
E|---------------------------------| /
C|-2-2-2-1-2-2-2-1-2-2-2-1-2-2-2-1-| /
G|---------------------------------| /
G G /
A|---------------------------------|/
E|---------------------------------|
C|-2-2-2-1-2-2-2-1-2-2-2-1-2-2-2-1-|
G|---------------------------------|
A A
A|---------------------------------|
E|---------------------------------|
C|-2-2-2-1-2-2-2-1-2-2-2-1-2-2-2-1-|
G|---------------------------------|


Verse 1
D D F# F#
And out of the dark night my world
Bm Bm A A G G
with eyes of a thousand dreams
D D F# F#
And in your eyes I know the tears are forming
Bm Bm A A G G
and that ain´t nothing now to me.
A A
Cause I know that


Chorus
D D
SweetHeart it´s gonna make you cry
Bm Bm
It´s gonna break your heart
G G
It´s gonna make the end come down
Bm Bm A A
I wander the night only for you
D D
SweetHeart it´s gonna make you cry
Bm Bm
It´s gonna break your heart
G G
It´s gonna make the end come down
Bm Bm A A D D
And out of the door I hear you cryin’


Verse 2
F# F#
You said your little world is gone
Bm Bm A A G G
I say that now should be the time
D D F# F#
We´re gonna tear this world to pieces baby
Bm Bm A A G G
And now I know that you know why
A A
Cause I know that


Chorus(last line is different)
Bm Bm A A G G A A
And out of the door I hear you cryin’


Bridge
Bm Bm G G A A
Give us a place to feel alive
Bm Bm G G A A
Somewhere to stake another claim
Bm Bm G G A A
Give us the world, we feel alive
Bm Bm G G A A G G A A
Oh yeah, All right


Verse 1


Chorus


Chorus 2
D D
SweetHeart it´s gonna make you cry
Bm Bm
It´s gonna break your heart
G G
It´s gonna make the end come down
Bm Bm A A
And out of the door I hear you cryin’
D D
SweetHeart it´s gonna make you cry
Bm Bm
It´s gonna break your heart
G G
It´s gonna make the end come down
Bm Bm A A D D
All right, oh yeah

 

乐谱评价 (0)
暂时没有评价. :(
需要帮助,你有一个小费分享,或只是想谈谈这首歌? 开始讨论!

您必须登录才能加入讨论
要么 注册

 

关于这首歌

没有这首歌的信息.