Gone In The Morning Uke乐谱通过 Newton Faulkner

3 在歌曲中使用的和弦: Ab, C#, F#

添加乐谱到您的歌本里
Tablature / ChordsFont size: A- A A+

不明白什么是乐谱和弦?请您浏览这些uke课程:

A|---4-------------------------------------|
E|---1-------------------------------------|
C|-1-1-1-(3)-1-(3)-------------------------|
G|---1-------------------------------------|

x3 times

***PAUSE***

A|---4-------------------------------------|
E|---1-------------------------------------|
C|-1-1-1-(3)-1-(3)-------------------------|
G|---1-------------------------------------|

x5

A|---9-------------------------------------|
E|---6-------------------------------------|
C|-6-6-6-(8)-6-(8)-------------------------|
G|---6-------------------------------------|

x3

A|---4-------------------------------------|
E|---1-------------------------------------|
C|-1-1-1-(3)-1-(3)-------------------------|
G|---1-------------------------------------|

x2

Won`t You, Come with me ?
Won`t You, Before They`re
A|-3-3-----9-9----4-4----------------------|
E|-4-4-----6-6----1-1----------------------|
C|-3-3-----6-6----1-1----------------------|
G|-5-5-----6-6----1-1----------------------|

Main Riff:
S -slide
A|----------------------------------------|
E|----------------------------------------|
C|-3s-5-3s-1-3s-5-3s-1--------------------|
G|----------------------------------------|

Gone in the morning I C# C#
I wanna know why they're
Gone in the morning I F# F#
I feel alone when they're
Gone in the morning I C# C#
I wanna know why they're
Gone in the morning I F# F#

I recommend to play this way:
C#: 6544
F#: 3121
Ab: 5343

C# C# Ab Ab F# F#
I don't mind what's in store
C# C#
I'll make it in my own sweet time
Ab Ab
When I go, oh I don't wanna go

Aloha!

 

乐谱评价 (0)
暂时没有评价. :(
需要帮助,你有一个小费分享,或只是想谈谈这首歌? 开始讨论!

您必须登录才能加入讨论
要么 注册

 

关于这首歌

没有这首歌的信息.