In The Next Room Uke乐谱通过 Neon Trees

5 在歌曲中使用的和弦 :

添加乐谱到您的歌本里

为Baritone浏览这些和弦

Transpose chords:
Tablature / ChordsFont size: A- A A+

不明白什么是乐谱和弦?请您浏览这些uke课程:


[Intro]
Bm chordBm
A--2--0-5-5/7--2--00----00--------------22-00-55/77-
E--2-----------2-----------2h3p2-0------------------
C--2-----------2-------------------2222-------------
G--4-----------4-----00-----------------------------

[Verses]
Bm chordBm
A--2--2-0--------2--2--0--------2------------
E--2--------2---2---2------2---2------------
C--2-----------2----2---------2-----------
G--4------0---------4----0----------------



[Pre-Chorus]
Bm chordBm F# chordF#
If you only knew


[Pre-Chorus 2]
Bm chordBm F# chordF#
If you only knew
Bm chordBm
How hard it is to handle
F# chordF#
How bad I want this scandle


[Chorus]
Bm chordBm G chordG
Ohhhhhhhhhhhhhhhh I lose control
D chordD
When I hear your body move
A chordA
Through the walls In the next room
Bm chordBm G chordG
Ohhhhhhhhhhhhhhhh I lose control
D chordD
When I hear your body move
A chordA
And I'm dying to break through
Bm chordBm
To the next room

 

乐谱评价 (0)
暂时没有评价. :(
需要帮助,你有一个小费分享,或只是想谈谈这首歌? 开始讨论!

您必须登录才能加入讨论
要么 注册

 

关于这首歌

没有这首歌的信息.