Ussr Anthem Uke乐谱通过 National Anthem

Ukulele乐谱没有和弦.

添加乐谱到您的歌本里
Tablature / ChordsFont size: A- A A+

不明白什么是乐谱和弦?请您浏览这些uke课程:

A|-------------|-------------|-2-----------|-------------|-------------|
E|-------------|-------------|-------0--0--|-----------1-|-------------|
C|-------------|-0-----------|-4-----------|-5-----------|-0-----0--0--|
G|----------0--|-------0---2-|-------------|-2-----0-----|-0-----------|

A|-5-----------|-------------|-------2--3--|-5-----------|
E|-1--------0--|-1-----1-----|-------------|-3-----------|
C|-2-----2-----|-0-----------|-0-----------|-------------|
G|-2-----------|----------0--|-2-----------|----------0--|

A|-------5---3-|-5-----2-----|-0-----2-----|-2-----------|
E|-0-----------|-3-----------|-------------|-------0--0--|
C|-0-----------|-------------|-------------|-4-----------|
G|-------------|----------0--|-5---------2-|-------------|

A|-------------|-------------|-3-----2-----|-------------|
E|----------1--|-------------|-------------|-3-----------|
C|-5-----------|-0-----0--0--|-2-----------|-------------|
G|-2-----0-----|-0-----------|-----------2-|-0-----------|

A|-------------|-5--3--2--3--|-5-----2-----|-------------|
E|-0-----------|-3-----------|-3-----------|-------------|
C|-0-----------|-------------|-------------|-------------|
G|-------------|-------------|----------0--|-0-----------|

A|-0-----------|-2-----------|-2-----------|-------------|
E|-------------|-------------|----------0--|-0-----------|
C|-------------|-4-----------|-------------|-------------|
G|-5-----------|----2--0--2--|-------------|-------------|

A|-3---------2-|-3---------2-|-3--------3--|-------------|
E|-------------|-------------|-------------|-1-----------|
C|-5-----------|-------------|-------------|-------------|
G|-------2-----|-------2-----|-------2-----|-------------|

A|-------------|----5--3--5--|----------3--|-3-----------|
E|-1-----------|-0-----------|-0-----------|-------------|
C|-2-----------|-7-----------|-0-----------|-------------|
G|-------------|-------------|-------------|-------------|

 

乐谱评价 (1)
您必须登录才能加入讨论
要么 注册

 

MrPatataUwU avatar
flag for AR(ISO2) (Buenos Aires)
Algo complicado pero muy bueno
31 May 2019
关于这首歌

没有这首歌的信息.