Russian Anthem Uke乐谱通过 National Anthem

9 在歌曲中使用的和弦: C, Em, F, Dm, Dm7, G, Am, D, E

添加乐谱到您的歌本里
Tablature / ChordsFont size: A- A A+

不明白什么是乐谱和弦?请您浏览这些uke课程:

C C     C C     Em Em    F F     C C     Dm Dm   Dm7 Dm7   Dm Dm     G G
A|----3-----2-----0-----3-----0-----3-----0-----2--|
E|--3-0-3-5-3-0-0-1-3-1-0-----1-0---1-1-1-1-1-1-3--|
C|----0-----4-----0-----0-0-0-2---2-1-----2-----2--|
G|----0-----0-----2-----0-----2-----2-----2-----0--|
Rossia - sviashennaia nasha derzhava,Rossia - lubimaia nasha strana!

C C G G Am Am Em Em F F C C D D G G
A|----3-----2-----0-----2-----0-----3-----0-----2--|
E|--3-0-3-5-3-0-0-0-0-2-3-0-0-1-0---0-----2-2-2-3--|
C|----0-----2-----0-----4-----0---2-0-0-0-2-----2--|
G|----0-----0-----2-----0-----2-----0-----2-----0--|
Moguchaia volia, velikaia slava - tvoio dostoianie na vse vremena!

C C G G Am Am Em Em
Slavsia, Otechestvo nashe svobodnoe,
F F G G
Bratskikh narodov soiuz vekovoi,
F F G G C C Dm Dm E E Am Am
Predkami dannaia mudrost' narodnaia!
F F C C D D G G
Slavsia, strana! My gordimsia toboi!

 

乐谱评价 (0)
暂时没有评价. :(
需要帮助,你有一个小费分享,或只是想谈谈这首歌? 开始讨论!

您必须登录才能加入讨论
要么 注册

 

关于这首歌

没有这首歌的信息.