Ghosting (介绍) Uke乐谱通过 Mother Mother

Ukulele乐谱没有和弦.

添加乐谱到您的歌本里
Tablature / ChordsFont size: A- A A+

不明白什么是乐谱和弦?请您浏览这些uke课程:

A|------------------2-----------------------------------|
E|---------4-------------------------4------------------|
C|------6-----3----------------4--6-----3--2------------|
G|---4--------------------------------------------------|

A|---------------------------0-1-2-------------------2--------2---2----------|
E|---------3-4-----4----------------2-----2-----3-----------------2----------|
C|---4-5-6------3-----------------------------6---4-----3---------3----------|
G|--------------------4----------------4-------------------2------2----------|

A|--------------------------------------------------------------------2------|
E|---7------4----------7------4----------7------4----------7------4----------|
C|--------6-----3-6---------6-----3-6---------6-----3-6---------6-------6----|
G|---8--------4--------8--------4--------8--------4--------8--------4--------|

A|---------------------------------------------------------2-----------------|
E|---7------4----------7------4----------7------4----------7-----------------|
C|--------6-----3-6---------6-----3-6---------6-----3-6----------------------|
G|---8--------4--------8--------4--------8--------4--------8-----------------|

 

乐谱评价 (0)
暂时没有评价. :(
需要帮助,你有一个小费分享,或只是想谈谈这首歌? 开始讨论!

您必须登录才能加入讨论
要么 注册

 

关于这首歌

没有这首歌的信息.