Polar Opposites Uke乐谱通过 Modest Mouse

1 在歌曲中使用的和弦 :

添加乐谱到您的歌本里

为Baritone浏览这些和弦

Transpose chords:
Tablature / ChordsFont size: A- A A+

不明白什么是乐谱和弦?请您浏览这些uke课程:


Polar Opposites don't push away
A|--2--2--0----0-0------------------0-------------|
E|---------------------0-0-0-3---3------3---------|
C|------------------2-----------------------------|
G|------------------------------------------------|x3


you can do about some things

A|--2--2--0--0-0--0-----------------------------|
E|-------------------3--------------------------|
C|----------------------------------------------|
G|----------------------------------------------|


I'm trying I'm trying to
A|--5--3--2------5--3--2------------------------|
E|------------------------3---------------------|
C|----------------------------------------------|
G|----------------------------------------------|

 

乐谱评价 (0)
暂时没有评价. :(
需要帮助,你有一个小费分享,或只是想谈谈这首歌? 开始讨论!

您必须登录才能加入讨论
要么 注册

 

关于这首歌

没有这首歌的信息.