Tell It To The Volcano Uke乐谱通过 Miniature Tigers

6 在歌曲中使用的和弦: C, F, G, A, A#, B

添加乐谱到您的歌本里
Tablature / ChordsFont size: A- A A+

不明白什么是乐谱和弦?请您浏览这些uke课程:

intro: C C F F G G C C x2*



verse 1:

C C F F
You can hang on to me, but my love won't surround you
G G C C
Now that you're finally gone, I am free to
C C F F G G C C
get on with my life. Oh oh oh.
C C F F
You can summon all the gods that your black heart desires
G G C C
Thinking I'll help you 'cause they're starting fires
C C F F G G C C
to burn you alive


chorus:

C C C C C C A A A# A# B B**
Tell it to the vol-ca-no
B B B B A A G G C C
From what I know, you're goin' down the hole

(back to open chords)
F F C C
Down you're goin', down the hole
G G C C
Tell it to the volcano
F F C C
Save your "sorrys"
G G C C
Tell it to the volcano


verse 2:

C C F F G G
A A year ago today, I was fallin' in love with you
C C
I didn't know how I could tell you
C C F F G G
You were breaking my heart, shrinking my head
C C
I couldn't get out of my bed


repeat chorus.


guitar solo:

e|-1-1---1-2-3----|-3-3---5-4-3----|-3-3------------|---------3-2-3--|
b|-1-1------------|-5-5------------|-3-3------------|-5-4-5----------|
g|-2-2------------|-5-5------------|-4-4---5-4-5----|----------------|
d|-3-3------------|-5-5------------|-5-5------------|----------------|
a|-3-3------------|-3-3------------|-5-5------------|----------------|
E|-1-1------------|-3-3------------|-3-3------------|----------------|


e|-1-1---1-2-3----|-3-3---5-4-3----|-3-3------------|-0--0-0---------|
b|-1-1------------|-5-5------------|-3-3------------|-1--1-1---------|
g|-2-2------------|-5-5------------|-4-4---5-4-5----|-0--0-0---------|
d|-3-3------------|-5-5------------|-5-5------------|-2--2-2---------|
a|-3-3------------|-3-3------------|-5-5------------|-3--3-3---------|
E|-1-1------------|-3-3------------|-3-3------------|-0--0-0---------|




bridge 1:

F F
Oom, I'd like to chuck ya
C C
Oom, I'd like to chuck ya
G G
Oom, I'd like to chuck ya
C C
Oom, I'd like to chuck ya
F F
Oom, I'd like to chuck ya
C C G G C C
Oom, I'd like to chuck ya down


bridge 2:

F F
Oom, I'd like to chuck ya
C C G G C C
Oom, I'd like to throw away the pain on my own
F F C C
You're cryin' and you're screamin' and you're beggin' not to go
G G C C
Tell it to the volcano

F F C C
Down you're goin', down the hole
G G C C
Tell it to the volcano
F F C C
Save your "sorrys"
G G C C
Tell it to the volcano


repeat bridge 1

 

乐谱评价 (3)
您必须登录才能加入讨论
要么 注册

 

pandoranpunk avatar
flag for US(ISO2) (Mesa)
I can't seem to get the chorus, so I sort of made my own chords for it.
C C C F G7 G
tell it to the volcano
G C
From what I know you're goin' down the hole!
14 Jul 2018
Pistiflete avatar
flag for FR(ISO2) (vermondans)
maybe ...
01 Feb 2010
thesnooze avatar
I really didn't expect someone to tab this song. Thanks! Any chance for a uke arrangement for the solo?
31 Jan 2010
关于这首歌

没有这首歌的信息.