Nothing Else Matters Uke乐谱通过 Metallica

Ukulele乐谱没有和弦.

添加乐谱到您的歌本里
Tablature / ChordsFont size: A- A A+

不明白什么是乐谱和弦?请您浏览这些uke课程:

A-------2---2-------2---2-------2---2-------2---2---
E---------0-----------0-----------0-----------0-----
C---4-----------4-----------4-----------4-----------
G-----0-------0---0-------0---0-------0---0---------
P H P P P P P ~ P
A-------2--------2-------------------------7-0--7---7---2---
E--------------0-------------------5---5-0--------2---------
C-----4--------------4--------------------------------------
G---4-4---0--4-----0---0-4-5-4-5-4---4-------5--------------
P P
A---0---7----0--2-------7-----7-----------------------------------------------
E---------0-----------------3------0-------2---5-2----0----3-------------3----
C------------------0------------------2--2---2-----2-----4--------------------
G-----5------5--5--5--5---5-----5-----7-----------------------4--9---4--(--)--
H
A-------2---2-------2---2-------2---2--------------
E---------0-----------0-----------0----------------
C---4-----------4-----------4-----------4----------
G-----0-------0---0-------0---0-------0------------

A-------------------------7--------------------------7---
E--------(0)----5-2----3-----------(0)----5-2----3-----
C---4---4-----2---2--0------4-4---4-----2---2--0-------
G-----4------------------5------4------------------5---
P
A-----------4----------------7--------5----2---6----------2---2------2---
E--------------5-5-2----3-3--------3--------2--------------0--------0---
C---4-4---4----------2-----------0-------------------4-----------4------
G-------4---4-----------------5--------4--------2-(-0)-0-------0----0---

 

乐谱评价 (2)
您必须登录才能加入讨论
要么 注册

 

AngelaRodriguezForer avatar
Es la intro o el solo?
18 Jun 2020
Sinthed avatar
flag for US(ISO2) (Warsaw)
Extremely accurate for a song of this measure to be on a ukulele.
06 Sep 2013
关于这首歌

没有这首歌的信息.