Master Of Puppets (介绍) Uke乐谱通过 Metallica

Ukulele乐谱没有和弦.

添加乐谱到您的歌本里
Tablature / ChordsFont size: A- A A+

不明白什么是乐谱和弦?请您浏览这些uke课程:

A|-----------------|---------|-----------------|
E|-----8-----7-----|-6--5--4-|-----------------|
C|-0-0---0-0---0-0-|-5--4--3-|-0-0-7-0-0-6-0-0-|
G|-----------------|---------|-----------------|

A|-----------------||-----------------|
E|-----------------||-----3-----4-----|
C|-5-0-4-0-3-0-2-1-||-0-1---0-1---0-1-|
G|-----------------||-----------------|

A|-----------------|-----------------|---------------------|
E|-5-----4-----3-3-|-----3-----4-----|---------------------|
C|---0-1---0-1-----|-0-1---0-1---0-1-|-3\2--0--3\2--0--3\2-|
G|-----------------|-----------------|-3\2--0--3\2--0--3\2-|

 

乐谱评价 (1)
您必须登录才能加入讨论
要么 注册

 

tspange avatar
flag for US(ISO2) (Brenham)
An easy riff
05 May 2017
关于这首歌

没有这首歌的信息.