Ojos Azules Uke乐谱通过 Manuel Cazasola

1 在歌曲中使用的和弦 :

添加乐谱到您的歌本里

为Baritone浏览这些和弦

Transpose chords:
Tablature / ChordsFont size: A- A A+

不明白什么是乐谱和弦?请您浏览这些uke课程:


Ojos azules


A|-----0-----0-----0-----0-0-000-3-0---0-------0---0---0-3-------|2x
E|---1-----1-----1-----1-------------3---1-1-3---3---3-----0-1---|2x
C|-2-----2-----2-----2-----------------------------------------2-|2x
G|---------------------------------------------------------------|2x


A|-----0-----0-----0-----0---------------0-----0---0---0-3-------|2x
E|---1-----1-----1-----1---1-111-----1-3---1-3---3---3-----0-1---|2x
C|-2-----2-----2-----2-----------2-0---------------------------2-|2x
G|---------------------------------------------------------------|2x

 

乐谱评价 (0)
暂时没有评价. :(
需要帮助,你有一个小费分享,或只是想谈谈这首歌? 开始讨论!

您必须登录才能加入讨论
要么 注册

 

关于这首歌

没有这首歌的信息.