Akorntion Uke乐谱通过 Manos Loizos

Ukulele乐谱没有和弦.

添加乐谱到您的歌本里
Tablature / ChordsFont size: A- A A+

不明白什么是乐谱和弦?请您浏览这些uke课程:

A|--------------7--7--7--7--7--
E|--1--1--1--3-----------------
C|-----------------------------
G|-----------------------------


A|------------------------------
E|--3--3--3--5---1--1--1--1--1--
C|------------------------------
G|------------------------------


A|--2-----------------------------------------------------------------------
E|-----1--3--5---5---6---6---6---6-------5---5---5---6---3--3--3--5---3--1--
C|--------------------------------------------------------------------------
G|-----------------------------------5--------------------------------------

original by kithara.to

e|-----------------|
B|6-6-6-8-5-5-5-5-5|2x

e|------------------|2x
B|8-8-8-10-6-6-6-6-6|2x

Στίχοι:
e|------------------------------------------------------------------------------|
B|(κενή)-6-8-10-10-8-6--6-8-10---10--10-11-11-11-11-13-10--10-10-11-8-8-8-10-8-6|2x



E|0-3-5-7-7---7-5-3---3-5-7-8-8

 

乐谱评价 (0)
暂时没有评价. :(
需要帮助,你有一个小费分享,或只是想谈谈这首歌? 开始讨论!

您必须登录才能加入讨论
要么 注册

 

关于这首歌

没有这首歌的信息.