Beach Bowl Galaxy Uke乐谱通过 Mahito Yokota

1 在歌曲中使用的和弦 :

添加乐谱到您的歌本里

为Baritone浏览这些和弦

Transpose chords:
Tablature / ChordsFont size: A- A A+

不明白什么是乐谱和弦?请您浏览这些uke课程:


A|-------5----7-7-7-7-7-7-7-----5-4-5-----|
E|----4--------------------------------7--|
C|----------------------------------------|
G|----------------------------------------|



A|------5-5-5-5-5-5-5-2-4-7---------------|
E|--7-------------------------------------|
C|----------------------------------------|
G|----------------------------------------|



A|------5-----7-7-7-7-7-7-7----5-4-5---9--|
E|---4------------------------------------|
C|----------------------------------------|
G|----------------------------------------|



A|----9--7--5--4-----7--5--4-------5--4-----------|
E|----------------------------7----------7-5-5-5,5|
C|------------------------------------------------|
G|------------------------------------------------|

 

乐谱评价 (0)
暂时没有评价. :(
需要帮助,你有一个小费分享,或只是想谈谈这首歌? 开始讨论!

您必须登录才能加入讨论
要么 注册

 

关于这首歌

没有这首歌的信息.