Tuesday's Gone (介绍) Uke乐谱通过 Lynyrd Skynyrd

Ukulele乐谱没有和弦.

添加乐谱到您的歌本里
Tablature / ChordsFont size: A- A A+

不明白什么是乐谱和弦?请您浏览这些uke课程:

-----------------------------------------------------------------------------------


A|-4-4-5-4-2-4-2-2-0-2-4---0-2-0-0-4-4-5--|
E|-----------------------2----------------|
C|----------------------------------------|
G|----------------------------------------|



A|-4-4-4-2-4-2-7-5-7-5-7-5----------------|
E|-------------------------9s7-7-9s5-5----|
C|----------------------------------------|
G|----------------------------------------|



A|----------------------------------------|
E|-9s7-7-9s0-0-9s7-7-9s2-2-4-5------------|
C|-----------------------------2-0-2-2s<--|
G|----------------------------------------|



A|------------------7-5-7-5-7-5-4-5-7-4-0-|
E|-9-9-10-9-9-7-9-7-----------------------|
C|----------------------------------------|
G|----------------------------------------|

 

乐谱评价 (0)
暂时没有评价. :(
需要帮助,你有一个小费分享,或只是想谈谈这首歌? 开始讨论!

您必须登录才能加入讨论
要么 注册

 

关于这首歌

没有这首歌的信息.