The Ballad Of Curtis Lowe (独奏) Uke乐谱通过 Lynyrd Skynyrd

Ukulele乐谱没有和弦.

添加乐谱到您的歌本里
Tablature / ChordsFont size: A- A A+

不明白什么是乐谱和弦?请您浏览这些uke课程:

~~~S     
|--------------------------------------------------------|
|--------------------------------------4---4----------4--|
|--4-6--6--4--4--4-6--------4-6--4--6---------6--4-------|
|---b-----r-------b----4-6---b--r-----b------r-----------|
|-4-2------|
|-----2~--0|
|----------|
|----------|
S S ~
a|-------------------------------------|
E|---4--4--4-------------------------5-|
C|-4---------4-4-6--6--4-4-2------b----|
G|----------------------------6--4-----|

|-----------------------------------------------------------------------------|
|---4-----------------------------------4--------------4--4--4--4--4----|
|-----------------------------------------6---------------------------6-|
|9-----4--6--9--11--13--11--13--13--11--9--6--------9--6--4-------------------|

|---------------------------------------------------------------------|
|3--3----------------------4-----4-----3--3-----------------4---------|
|------6-----------------4----------6--------6--4----4-4-6------------|
|--------9--6-9--9--6--4------6-------------------6------------4--9---|

|------------------------------------------|
|---------------4-----------4----------|
|--------------------------------------|
|16--13--11--4--4-----9--6--4------11--9---|

|-------------------------------------------|
|-------------4-----4-----------------------|
|----------6-----------6--4-6---------------|
|6-9--6-4--------4-------------6-9--6-4--9--|

|-------------------------------------------------------------------------|
|--------4--------------4----------4-4-------4------------3---------4-----|
|-----------4----------------------------------6--4-----4-------------6-4-|
|4--6-4-------6-9--6-4-----9--6-4-------6-4--------6--4------9--6-4-------|
~~S
|-------------------------------------------------------|
|-6--------6---4---4-------------6-----6-----6---4------|
|-5--7--7--5---3---3--------4----5--7--5--7--5---3---7--|
|---b5--5-r---------b--4-6----6----b5----b5-r--------5--|

 

乐谱评价 (0)
暂时没有评价. :(
需要帮助,你有一个小费分享,或只是想谈谈这首歌? 开始讨论!

您必须登录才能加入讨论
要么 注册

 

关于这首歌

没有这首歌的信息.