Sweet Home Alabama (歌曲主要旋律) Uke乐谱通过 Lynyrd Skynyrd

Ukulele乐谱没有和弦.

添加乐谱到您的歌本里
Tablature / ChordsFont size: A- A A+

不明白什么是乐谱和弦?请您浏览这些uke课程:

Original tuning : +3.5 步骤 [ ? ]
A|----10----------8---------3---3---------|
E|----------------------------------0-----|
C|-7-7-----7--5-5----5--0-0-------2-------|
G|-------7----------5----------------0-2-0|



A|---5-1----------------------------------|
E|-0--------------------------------------|
C|----------------------------------------|
G|----------------------------------------|


A|----10----------8---------3---3--5--3--3|
E|----------------------------------------|
C|-7-7-----7--5-5----5--0-0---------------|
G|-------7----------5---------------------|


A|7--3--3--10-----------------------------|
E|----------------------------------------|
C|----------------------------------------|
G|----------------------------------------|

Repeat Through Out The Song

 

乐谱评价 (2)
您必须登录才能加入讨论
要么 注册

 

StrawberryF! avatar
flag for AU(ISO2) (Melbourne)
a little weird...starting bit is good though
25 Mar 2012
Love The Luka avatar
flag for AU(ISO2) (South West Rocks)
No, just, no.
24 Mar 2012
关于这首歌

没有这首歌的信息.