Sweet Home Alabama Uke乐谱通过 Lynyrd Skynyrd

Ukulele乐谱没有和弦.

添加乐谱到您的歌本里
Tablature / ChordsFont size: A- A A+

不明白什么是乐谱和弦?请您浏览这些uke课程:

-----5---------5-----------------5------------5---------5-----------
-----------------3-----------3-------3--------------------3---------
-2-2-----2-0-0-----0-2-2---0-----------2--2-2-----2-0-0-----0-2-2---
-------2-----------------2-----2---2------------2-----------------2-

-5-----5-----7------------------------------------------------------
-----3-----3--------------------------------------------------------
--------------------------------------------------------------------
---2-----2----------------------------------------------------------

This is generaly repeats through out the rest of the song

your hand will stay for the most part in the same position, with baring all the 2s and hold the 7th fret of a, and the third fret of e.

 

乐谱评价 (1)
您必须登录才能加入讨论
要么 注册

 

Skumfuk avatar
Very nice Tab I have to admit, but the album the song originally came from was "Second Helping" :)
23 Mar 2013
关于这首歌

没有这首歌的信息.