Simple Man Uke乐谱通过 Lynyrd Skynyrd

Ukulele乐谱没有和弦.

添加乐谱到您的歌本里
Tablature / ChordsFont size: A- A A+

不明白什么是乐谱和弦?请您浏览这些uke课程:

|-0-2---------3-----------2-------2---0-----0-3-------0-3-------3-0-2|
|---------0-------0---3-----3-------------0-------0---------0-3------|
|-----0-----0-----------2-------2---2--------------------------------|
|-------0-------0---0---------0---------2-------2---2-----2----------|

|-0-2-------3-------------2-------2---0-----3-------3-----------3-0-2|
|---------0-------0---3-------------------0-------0-------0-3--------|
|-----0-----------------2-------2---2--------------------------------|
|-------0-------0---0-------0-----------2-------2-------2------------|
|-0-2-3------3-----7--------------2-0------0-----0--0------0------0-2|
|--------------------3-------3---------------------------------------|
|--------------------------------------------------------------------|
|--------------------------------------------------------------------|
|-0-2--3------5b7r5-3---------5b7r5-3-(0)----------------------------|
|----------------------3---------------5-----0--3--0--3//5-------0---|
|--------------------------------------------------------------------|
|--------------------------------------------------------------------|
|--10------------10-\5--5-----------5---7-----------------7--------x---|
|--8------------8\\3--3-----------3---5----------0-3-0--5--------x---|
|--12------------12--7--7-----------7---9-----------------9--------x---|
|--------------------------------------------------------------------|

|--------------------------------------------------------------------|
|--------------------------------------------------------------5-----|
|--------2--2---------------2-2----2-----------------2-2--------....-|
|------5-----^vvvvvvvvvvvv---^--5---------------------^--5-----------|
S S
|-----------------------------------------------------------------------|
|----3-5--5-------5--------------------------------------------------|
|--4--------------------------14--------------------------------------|
|--------------5------14-5--7--12-^vvvvvvv-12-7-^7---5---7-----7-^7--5--|

|--------44---------------------------------------------------44-------------------------------------------|
|----------------------``--``--^`21----^------------------------------------------------------|
|---------------------------------------------------------------------------------------------|
|-14-12----------9-14---16---17---17-------17------14-9---12-------------12--12--9--12-----------7-`2114---|

|-------------------------------------------------------------------|
|------------------------------------------------------5-----|
|----------------------------------------------------------2-|
|-12-------7-`21v14-12-------7-21vv14-12------9-14-9--12--------5---|
S S
|---------------------------------------7---------------------------------------------------|
|--------------5-----------------------5---3-5------------------------------------------|
|-2--4--------------2-2-----2-2-----2----------------------------------------->---------|
|--^`-vvvvvv---------^----5--^-vvvv--`----------------14--5--7---7--9--9--12--12--14--5--7--|
S
|-------------------------------------------------------44--------------------------0-2-|
|--------------------------------------------------------------3---------5----------|
|----------------------------------------------------------------2-2----------------|
|-7-`21vvvv----14-12--7-^7----------12--7-^7--5-----12----------------^---5-------------|

Then play interlude again
Then verse
Then chorus

 

乐谱评价 (0)
暂时没有评价. :(
需要帮助,你有一个小费分享,或只是想谈谈这首歌? 开始讨论!

您必须登录才能加入讨论
要么 注册

 

关于这首歌

没有这首歌的信息.