Free Bird (歌曲主要旋律) Uke乐谱通过 Lynyrd Skynyrd

Ukulele乐谱没有和弦.

添加乐谱到您的歌本里
Tablature / ChordsFont size: A- A A+

不明白什么是乐谱和弦?请您浏览这些uke课程:

G G        D D        Em Em
A|----10--9-10-9----10--10-9-7----7------7------|
E|-10-7--------10-------7------10----------10-7-|
C|----7--------9--------7-----------------------|
G|----7--------11-------7-----------------------|

F F C C D D
A|-8--8-8-8/7--7----------9---------------------|
E|-8---------8-8-----8--8/10--------------------|
C|-9-----------7----------9---------------------|
G|-10----------9----------11--------------------|

 

乐谱评价 (0)
暂时没有评价. :(
需要帮助,你有一个小费分享,或只是想谈谈这首歌? 开始讨论!

您必须登录才能加入讨论
要么 注册

 

关于这首歌

没有这首歌的信息.