Free Bird Uke乐谱通过 Lynyrd Skynyrd

Ukulele乐谱没有和弦.

添加乐谱到您的歌本里
Tablature / ChordsFont size: A- A A+

不明白什么是乐谱和弦?请您浏览这些uke课程:

# here's the intro


Chords: G G D D Em Em F F E E D D


---5/10---9/10---9---10-10/9/7------------
----------------------------------------------------
----------------------------------------------------
----------------------------------------------------

---5/7--7/6--------------8-8-8/7---------------
----------------------------------------------------
-------------------------------------------7-7/9--
---------------4---4/5--------------5-------------

--------------------------------------------------------
--------------------------------------------------------
--------------------------------------------------------
----7-7/5/7-------------------------------------------


i'm sorry but this is as far as i get because you have to play on the 19th fret and my ukulele does only have 16

 

乐谱评价 (1)
您必须登录才能加入讨论
要么 注册

 

MiniEerikki avatar
flag for FI(ISO2) (Espoo)
Thank you for this :) Hope I can get the rest of the it later somewhere else! :)
03 Sep 2010
关于这首歌

没有这首歌的信息.