Taking It Easyy Uke乐谱通过 Los Kung-Fu Monkeys

4 在歌曲中使用的和弦: D, G, C, A

添加乐谱到您的歌本里
Tablature / ChordsFont size: A- A A+

不明白什么是乐谱和弦?请您浏览这些uke课程:

Intro
A|-5--5--3--3-----------0--0--|
E|-5--5--3--3--3-3-3-3--0--0--|
C|-2--2--0--0--2-2-2-2--4--4--|
G|-2--2--0--0--0-0-0-0--2--2--|

A|-5--5--3--3-----------0--0--|
E|-5--5--3--3--3-3-3-3--0--0--|
C|-2--2--0--0--2-2-2-2--4--4--|
G|-2--2--0--0--0-0-0-0--2--2--|
(Horns come in)
D D G G D D G G D D
A|----------------------------------------------|
E|-5-------7--5-7--5-7--5-------3h2-3-3-2-3--2--|
C|----------------------------------------------|
G|----------------------------------------------|
G G D D G G (D D)
A|-----------------------------------|
E|-------------2-------------------2-|
C|-4-2-2-4-2-4---------4-2-2-4-2-4---|
G|-----------------------------------|


Verse 1
D D G G
Break up with my girl and I'm taking it easy
D D G G
Lost my job and I'm taking it easy
D D G G
My car broke down and I'm taking it easy
D D G G
Sun is coming down and I'm taking it easy


Pre Chorus
D D G G
Cause all I want to do is pick up my guitar
D D G G
I'm going down to have a drink at the bar
D D G G
When everything comes to a stop
D D G G
Life gets you down but you get back up


Verse 2
D D G G
Late for a meeting and I'm taking it easy
D D G G
Stuck in traffic and I'm taking it easy
D D G G
Angry at the police and I'm taking it easy
D D G G
Getting screwed by the system and it's not getting easy


Chorus x2
D D C C
Cause every now and then
G G A A
Things come together
D D C C
Cause every once in a while
G G A A
We get it right!


Solo
A|-5--5--3--3-----------0--0--|
E|-5--5--3--3--3-3-3-3--0--0--|
C|-2--2--0--0--2-2-2-2--4--4--|
G|-2--2--0--0--0-0-0-0--2--2--|

A|-----------------------------------------------|
E|-5-5-5-3/5-5-5-3/5-5-5-3/5-5-5-3/5-5-5-3/5-5-5-|
C|-4-4-4-2/4-4-4-2/4-4-4-2/4-4-4-2/4-4-4-2/4-4-4-|
G|-----------------------------------------------|

A|-------------------------------------0--|
E|-3--5-3------------------3--5-3---------|
C|--------4-2----2-2-2-2-4--------4-2-----|
G|----------------------------------------|

A|----------------------0--|
E|-----------3--5-3--------|
C|-2-2-2-2-4--------4-2----|
G|-------------------------|


Verse 3
D D G G
Lost my keys and I'm taking it easy
D D G G
Home team lost and we are taking it easy
D D G G
Rent is due and I'm taking it easy
D D G G
Haven't slept in two days and it's not getting easy


Pre Chorus x2


Chorus x2

D D N.C.
My car broke down and I'm taking it easy
D D N.C.
Sun is coming down and I'm taking it easy


Outro
D D G G
taking it easy
D D G G
taking it easy
A|-5--5--3--3-----------0--0--|
E|-5--5--3--3--3-3-3-3--0--0--|
C|-2--2--0--0--2-2-2-2--4--4--|
G|-2--2--0--0--0-0-0-0--2--2--|

A|-5--5--3--3-----------0--0--5--|
E|-5--5--3--3--3-3-3-3--0--0--5--|
C|-2--2--0--0--2-2-2-2--4--4--2--|
G|-2--2--0--0--0-0-0-0--2--2--2--|

 

乐谱评价 (0)
暂时没有评价. :(
需要帮助,你有一个小费分享,或只是想谈谈这首歌? 开始讨论!

您必须登录才能加入讨论
要么 注册

 

关于这首歌

没有这首歌的信息.