Alma Corazon Y Vida Uke乐谱通过 Los Embajadores Criollos

Ukulele乐谱没有和弦.

添加乐谱到您的歌本里
Tablature / ChordsFont size: A- A A+

不明白什么是乐谱和弦?请您浏览这些uke课程:

A|-(0)--2-3-2---0--3--3--|--0---------------------|
E|--------------0--------|-----0-1-3-1-0--5-1--1--|
C|-----------------------|----------------2-2--2--|
G|----2-------2----2--2--|------------------------|

A|---5---------0--3-5-------|-5-2-3-5---5-0---|-------0-|
E|-----0-1-3-1-0------0-1-0-|---------0-------|--0------|
C|-2------------------------|-4---------------|----0----|
G|--------------------------|-------------5---|---------|

A|-(0)--2-3-2---0--3--3--|--0---------------------|
E|--------------0--------|-----0-1-3-1-0--5-1--1--|
C|-----------------------|----------------2-2--2--|
G|----2-------2----2--2--|------------------------|

A|---5---------0--3-5-------|-5-2-3-5---5-0---|-------0-|
E|-----0-1-3-1-0------0-1-0-|---------0-------|--0------|
C|-2------------------------|-4---------------|----0----|
G|--------------------------|-------------5---|---------|

A|-(0)--2-3-2---0--3--3--|--0---------------------|
E|--------------0--------|-----0-1-3-1-0--5-1--1--|
C|-----------------------|----------------2-2--2--|
G|----2-------2----2--2--|------------------------|

A|---5---------0--3-5-------|-5-2-3-5---5-0---|-------0-|
E|-----0-1-3-1-0------0-1-0-|---------0-------|--0------|
C|-2------------------------|-4---------------|----0----|
G|--------------------------|-------------5---|---------|

A|-0---7-7----7-----7-7----|-----5-5----5------5-5--|
E|-5-5----------5-5--------|-3-3----------3-3-------|
C|-------------------------|------------------------|
G|----------5-------5-5----|----------4--------4-4--|

A|-0---7-7----7-----7-7----|-----5-5----5------5-5--|
E|-5-5----------5-5--------|-3-3----------3-3-------|
C|-------------------------|------------------------|
G|----------5-------5-5----|----------4--------4-4--|

A|----3-3----3----------0--|-------|
E|-1-1---------1-1--3-1-0--|---3---|
C|-------------------------|-------|
G|---------2---------------|---1---|

A|-----5---5--------------5--|-0---3---3--------------3---|
E|-1-1---1----1--5-5--1------|-0-0---0---0---5-5---0------|
C|-2-------------------------|----------------------------|
G|---------------------------|----------------------------|

A|--------------------------0--|------|
E|-4-4---3-4-3---4-4---5----5--|--3---|
C|-4-------4-------4------2----|------|
G|-4-4---3-4-3---4-4---5--4-5--|--1---|

A|-----5---5--------------5--|-0---3---3--------------3---|
E|-1-1---1----1--5-5--1------|-0-0---0---0---5-5---0------|
C|-2-------------------------|----------------------------|
G|---------------------------|----------------------------|

A|--------------------------0--|-----0-|
E|-4-4---3-4-3---4-4---5----5--|--4--5-|
C|-4-------4-------4------2----|--4----|
G|-4-4---3-4-3---4-4---5--4-5--|--4--5-|

 

乐谱评价 (0)
暂时没有评价. :(
需要帮助,你有一个小费分享,或只是想谈谈这首歌? 开始讨论!

您必须登录才能加入讨论
要么 注册

 

关于这首歌

没有这首歌的信息.