Les Étoiles Filantes Uke乐谱通过 Les Cowboys Fringants

4 在歌曲中使用的和弦: Bm, A, F#m, G

添加乐谱到您的歌本里
Tablature / ChordsFont size: A- A A+

不明白什么是乐谱和弦?请您浏览这些uke课程:

Original tuning : +2.0 步骤 [ ? ]
A-9-7-9--9-7-9--7-5-7--7-5-7------
E--------7-------7-------5-------5-----
C---------------------------------------
G--------------------------------------
x2

A-5--4--4--2-4-5--7-5-4--4--2

A-2-2-4-5-9-7-4-4-4-5-4-2-0-0-0-2-4-2-2-(12-10-9)
x2

Bm Bm
Si je m'arrête un instant,
A A
pour te parler de ma vie
F#m F#m
juste comme ça tranquillement
G G
dans un bar rue st-denis

Bm Bm
j'te raconterai les souvenirs
A A
bien gravés dans ma mémoire
F#m F#m
de cette époque où vieillir
G G
Était encore bien illusoire

Bm Bm
quand j'agaçais les ptites filles
A A
pas loin des balançoires
F#m F#m
et que mon sac de billes
G G
devenait un vrai trésor

Bm Bm
ces hivers enneigés
A A
à construire des igloos
F#m F#m
et rentrer les pieds g'lés
G G
juste à temps pour passe-partout

Bm Bm
et au bout du ch'min dis-moi c'qui va
A A
rester
F#m F#m
de la p'tite école et d'la cours de
G G
récré
Bm Bm
quand les avions en papier ne partent plus
A A
au vent
F#m F#m
on se dit que l'bon temps passe
G G
finalement


Comme des étoiles filantes
A-2-2-4-5-9-7-4-4-4-5-4-2-0-0-0-2-4-2-2-(12-10-9)
x2

Bm Bm
si je m'arrête un instant,
A A
pour te parler de la vie
F#m F#m
je constate que bien souvent
G G
on choisit pas mais on subit

Bm Bm
et que les rêves des ti-culs
A A
s'évanouissent ou se refoulent
F#m F#m
dans cette réalité crue
G G
qui nous embarque dans le moule

Bm Bm
la trentaine, la bedaine
A A
les morveux, l'hypothèque
F#m F#m
les bonheurs et les peines
G G
les bon coups et les échecs

Bm Bm
travailler faire d'son mieux
A A
n'arracher s'en sortir
F#m F#m
et espérer être heureux
G G
un peu avant de mourir

Bm Bm
et au bout du ch'min dis-moi c'qui va
A A
rester
F#m F#m
de not' ti passage dans ce monde
G G
éffréné
Bm Bm
après avoir existé pour gagner
A A
du temps
F#m F#m
on s'dira que l'on était
G G
finalement

Que des étoiles filantes

A-9-7-9--9-7-9--7-5-7--7-5-7------
E--------7-------7-------5-------5-----
C---------------------------------------
G--------------------------------------
x2

A-5--4--4--2-4-5--7-5-4--4--2

A-9-7-5--4-2-0----------0-2-5--4-2-4--0-0-------
E------------------3-2-3------------------------3-2-3
C----------------------------------------
G----------------------------------------


Bm Bm
si je m'arrête un instant,
A A
pour te parler de la vie
F#m F#m
juste comme ça tranquillement
G G
pas loin du carré st-louis

Bm Bm
c'est qu'avec toi je suis bien
A A
et qu'j'ai pus l'goût d'm'en faire
F#m F#m
parce que tsé voir trop loin
G G
c'pas mieux que r'garder en arrière

Bm Bm
malgré les vieilles amertumes
A A
et les amours qui passent
F#m F#m
les chums qu'on perd dans brume
G G
et les idéaux qui se cassent

Bm Bm
la vie s'accroche et renait
A A
comme les printemps reviennent
F#m F#m
dans une bouffée d'air frais
G G
qui apaise les coeurs en peine

Bm Bm
ca fait que si à soir t'as envie de
A A
rester
F#m F#m
avec moi la nuit est douce on peut
G G
marcher
Bm Bm
et même si on sait ben que toute dure rien
A A
qu'un temps
F#m F#m
j'aimerais ça que tu sois pour un
G G
moment


Mon étoile filante

A-2-2-4-5-9-7-4-4-4-5-4-2-0-0-0-2-4-2-2-(12-10-9)
x4

Mais au bout du chemin dit moi c'qui va rester x2

Que des étoiles filantes

A-9-7-9--9-7-9--9-7-9--9-----------
E--------7-------7-------7------------
C---------------------------------------
G--------------------------------------

 

乐谱评价 (0)
暂时没有评价. :(
需要帮助,你有一个小费分享,或只是想谈谈这首歌? 开始讨论!

您必须登录才能加入讨论
要么 注册

 

关于这首歌

没有这首歌的信息.