Lobos Uke乐谱通过 Leiva

9 在歌曲中使用的和弦: Bm, F#m, E, G, E7, F#7, D, A, B

添加乐谱到您的歌本里
Tablature / ChordsFont size: A- A A+

不明白什么是乐谱和弦?请您浏览这些uke课程:

SOLO INICIAL sobre: Bm Bm F#m F#m E E Bm Bm  [x2]



E|-----------------------------------------------|
B|--10·12-10--10-------10------------------------|
G|----------11--11-9-11--11----9^(10)-9-7·9-7----|
D|-------------------------------------------9~--| (x2)
A|-----------------------------------------------|
E|-----------------------------------------------|



Bm Bm F#m F#m
Ya sé que te puede gustar
E E Bm Bm
Que te haga un poco de publicidad
Bm Bm F#m F#m
No tienes nombre ni pasado
E E Bm Bm
Nunca te hubieramos cazado.


SOLO VARIANTE sobre: Bm Bm F#m F#m E E Bm Bm


E|----------------------------------------------------|
B|----10-12-12-12-10---10-----------------------------|
G|--11---------------11--11-----7·9-9--9-9^(10)^9-7---|
D|-------------------------------------------------9--|
A|----------------------------------------------------|
E|----------------------------------------------------|


Bm Bm F#m F#m
Ya ves todo puede fallar
E E Bm Bm
Ahora ya todos saben lo que hay
Bm Bm F#m F#m
Dicen que vives encerrado
E E Bm Bm
Como un viejo abandonado.


G G
Ahora solo escuchas un tick tack
E7 E7 F#7 F#7
Sabes que te va a llegar


Bm Bm D D E E
Por las noches sé que soñarás
Bm Bm D D F#7 F#7
Que los lobos llaman a tu puerta
Bm Bm D D E E
Eras uno más de la hermandad
G G F#7 F#7 Bm Bm
Pero tuviste que joderlo todo.


SOLO INICIAL (x1)


Bm Bm F#m F#m
Ya está, ahora toca saldar
E E Bm Bm
Tus cuentas con la banda y el staff
Bm Bm F#m F#m
Nadie se puso de tu lado
E E Bm Bm
Solo tu mierda de abogado.

G G
Ahora solo escuchas un tick tack
E7 E7 F#7 F#7
Sabes que te va a llegar

Bm Bm D D E E
Por las noches sé que soñarás
Bm Bm D D F#7 F#7
Que los lobos llaman a tu puerta
Bm Bm D D E E
Eras uno más de la hermandad
G G F#7 F#7 Bm Bm
Pero tuviste que joderlo todo.

F#7 F#7 Bm Bm D D E E
Por las noches sé que soñarás
Bm Bm D D F#7 F#7
Que los lobos llaman a tu puerta
Bm Bm D D E E
Eras uno más de la hermandad
G G F#7 F#7 Bm Bm
Pero tuviste que joderlo todo


SOLO PRINCIPAL sobre: Bm Bm F#m F#m E E Bm Bm [x2]

E|----------------------------------------------------|
B|----10-12-12-12-10---10-----------------------------|
G|--11---------------11--11-----7·9-9--9-9^(10)^9-7---|
D|-------------------------------------------------9--|
A|----------------------------------------------------|
E|----------------------------------------------------|



E|-----------------------------------------------------------|
B|--10·12-10--10-------10------------------------------------|
G|----------11--11-9-11--11----9^(10)^9-7-9-9^(10)^9·7-------|
D|------------------------------------------------------9/7--|
A|-----------------------------------------------------------|
E|-----------------------------------------------------------|


SOLO SEGUNDA GUITARRA sobre: D D A A Bm Bm [x2] D D A A A A F#7 F#7


Bm Bm E E
Por las noches sé que soñarás
Bm Bm F#7 F#7
Que los lobos llaman a tu puerta
Bm Bm E E
Eras uno más de la hermandad
G G F#7 F#7 Bm Bm
Pero tuviste que joderlo todo
G G F#7 F#7 E7 E7
Pero tuviste que joderlo todo


FINAL: Bm Bm F#m F#m E E Bm Bm (x2)

E|-----------------------------------------------|
B|--10·12-10--10-------10------------------------|
G|----------11--11-9-11--11----9^(10)-9-7·9-7----|
D|-------------------------------------------9~--| (x2)
A|-----------------------------------------------|
E|-----------------------------------------------|


E|--------------------------------------------------------
B|--10·12-10--10-------10---------------------------------
G|----------11--11-9-11--11----9^(10)^9-7-9-9^(10)^9·7----
D|--------------------------------------------------------
A|--------------------------------------------------------
E|--------------------------------------------------------

B B-B B A A B B
E----------------|
B----------------|
G----------------|
D--7·9-9-7-9-----|
A----------------|
E----------------|

 

乐谱评价 (0)
暂时没有评价. :(
需要帮助,你有一个小费分享,或只是想谈谈这首歌? 开始讨论!

您必须登录才能加入讨论
要么 注册

 

关于这首歌

没有这首歌的信息.