13 (歌曲主要旋律) Uke乐谱通过 LANY

Ukulele乐谱没有和弦.

添加乐谱到您的歌本里
Tablature / ChordsFont size: A- A A+

不明白什么是乐谱和弦?请您浏览这些uke课程:

A|-----------------|-----------------|-----------------|-----------------|
E|----0---------0--|--4-2-4-------0--|----0---------0--|--4-2-4-----5-4--|
C|--4---4-----6----|------------6----|--4---4-----6----|-----------------|
G|--------1-----2--|--------4-----2--|--------1-----2--|--------4-----6--|
H H S H H H S H H S H S H
A|-----7---------7-7----|-----7---------7-7--|-----7---------7-7----|-------------7------|
E|-------2-2-4-------2--|-------2-2-4--------|-------2-2-4-------2--|--4-5---2-4---------|
C|----------------------|--------------------|----------------------|--------------------|
G|--4-6-----------------|--4-6---------------|--4-6-----------------|--------------------|

 

乐谱评价 (0)
暂时没有评价. :(
需要帮助,你有一个小费分享,或只是想谈谈这首歌? 开始讨论!

您必须登录才能加入讨论
要么 注册

 

关于这首歌

没有这首歌的信息.