Sterben Für Dich Uke乐谱通过 LaFee

Ukulele乐谱没有和弦.

添加乐谱到您的歌本里
Tablature / ChordsFont size: A- A A+

不明白什么是乐谱和弦?请您浏览这些uke课程:

H                  H                  H          
A||----6---6-7-6-----|----6---6-7-6-7---|----6---6-7-6-----|
E||4-------------6-7-|4-----------------|4-------------6-7-|
C||------------------|------------------|------------------|
G||--4---4---------6-|--4---4-------6---|--4---4---------6-|
H H H
----6-7-6-7-6-----|----6---6-7-6---9---|----6---6-7-6-----|
4-----------------|4-------4-6-4-6----|4-------4-6---6---|
------------------|-------------------|------------------|
--4-------6-4-----|--4---4---------9--|--4---4-----4-6---|

--------7-------|--------7-------|--------7-------|--------7-------|
--4---4-----4---|--2---2-----2---|--4---4-----4---|--2---2-----2---|
1---------------|3---------------|1---------------|3---------------|
----6-----6---6-|----4-----4-----|----6-----6---6-|----4-----4-----|

--------7-------|--------7-------|----------------|----------------|
--4---4-----4---|--2---2-----2---|5---5-----5---5-|4---4-----------|
1---------------|3---------------|--4---4-----4---|--3---3---------|
----6-----6---6-|----4-----4-----|--------6-------|--------5-------|

----7-------7---|----------------|----------------|----------------|
--4---4---4---4-|5---5---5---5---|----2-------2---|4-------4-------|
1-------1-------|--4---4---4---4-|6-1---1-6-1---1-|--3---3---3---3-|
----6-------6---|----6-------6---|----3-------3---|----5-------5---|

----7-------7---|----------------|----------------|----------------|
--4---4---4---4-|5---5---5---5---|4-------4-------|4---------------|
1-------1-------|--4---4---4---4-|--3---3---3---3-|----------------|
----6-------6---|----6-------6---|----5-------5---|----------------|

 

乐谱评价 (0)
暂时没有评价. :(
需要帮助,你有一个小费分享,或只是想谈谈这首歌? 开始讨论!

您必须登录才能加入讨论
要么 注册

 

关于这首歌

没有这首歌的信息.