Stuck Here Again Uke乐谱通过 L7

Ukulele乐谱没有和弦.

添加乐谱到您的歌本里
Tablature / ChordsFont size: A- A A+

不明白什么是乐谱和弦?请您浏览这些uke课程:

A ---------------------------6------6-------------------------------|
E ---1---5-1-----5---------------3-------3-------1---5-1---5--------|
C -5---3------3----5------3--------------------5---3-----3---5------|
G -----------------------------6-------6----------------------------|

A -x--x--10--10---x--x--8-8---3-3-3-3--------------|
E -x--x--8--8---x--x--6-6---1-1-1-1--------------|
C -x--x--12--12---x--x--10-10---5-5-5-5--------------|
G -----------------------------------------------|

A ---------------------------6------6-------------------------------|
E ---1---5-1-----5---------------3-------3-------1---5-1---5--------|
C -5---3------3----5------3--------------------5---3-----3---5------|
G -----------------------------6-------6----------------------------|

A ----6-------------------------------------------|
E --------3--------3-3---4--5---------------------|
C --3--------------3-3---4--5---------------------|
G ------6----------6-6---7--8---------------------|

 

乐谱评价 (0)
暂时没有评价. :(
需要帮助,你有一个小费分享,或只是想谈谈这首歌? 开始讨论!

您必须登录才能加入讨论
要么 注册

 

关于这首歌

没有这首歌的信息.