Detroit Rock City (独奏) Uke乐谱通过 Kiss

Ukulele乐谱没有和弦.

添加乐谱到您的歌本里
Tablature / ChordsFont size: A- A A+

不明白什么是乐谱和弦?请您浏览这些uke课程:

Kiss - Detroit Rock City Solos

-LEGEND-

# First, listen to the original record to get the rhytm

# x - put your fingers on the strings lightly so you
# should not hear the tone, but the "string sound"

# ~ - hold the tone and vibrate


# First solo (2:51 - 3:24)

A-------------------------------------------------
E-1-----1-------1-----1---1--4-1------4-1---------
C---------3-0-3---------3--------0-3--------------
G-------------------------------------------------

A----------------------------------x-x------------
E-1-----1-------1-----1---1--4-1---x-x------------
C---------3-0-3---------3----------x-x------------
G----------------------------------x-x------------

A-8-8-8-8-4---------------------------------------
E-----------6-1---1-------1-----1---1--4-1-----4-1
C-------------------3-0-3---------3--------0-3----
G-------------------------------------------------

A-------------------------------------------------
E-1-----1-------1-----1---1--4-1------------------
C---------3-0-3---------3-------------------------
G-------------------------------------------------

A----------------------------1-------1------------
E-3-----3-1---1-3-----3-1-3----3---1---3----------
C-----------2--------------------2----------------
G-------------------------------------------------

A-------1-------1---------------------------------
E-3-1-3----3---1---3------------------------------
C------------2-------0-2~----------0-4~-----------
G-------------------------------------------------

# Second Solo (3:54 - 4:32)

A-----2-0---3-2-0-3-2-0--------2-3-2---------
E-0------------------------------------1-0-1-
C--------------------------------------------
G---0-------------------0----0-------0-------

A-0-----0---------------2-0---3-2-0-3-2-0----
E-----1-----1-0-----0------------------------
C--------------------------------------------
G---0-----0-----------0-------------------0--

F F F F F F F F F F F F F F
A---2-3-2-----------------------0-0-0-0-0-0-0
E-----------1-0-1---0---3---1---1-1-1-1-1-1-1
C-------------------------------0-0-0-0-0-0-0
G-0-------0---------------------2-2-2-2-2-2-2

C C G G
A-x-2-----3-2-0-3-2-0--------2-3-2-----2-0---
E-0-3--------------------------------1-------
C-0-2----------------------------------------
G-0-0-----------------0----0-------0---------

A-3--2--0---0---0-12--10-12-10-7--5-0--------
E--------------------------------------------
C--------------------------------------------
G---------0----------------------------------

A-3-2-0-3-2-0--------2-3-2-------------------
E----------------------------1---------------
C------------------------------3-0~----------
G-------------0----0-------0-----------------

 

乐谱评价 (0)
暂时没有评价. :(
需要帮助,你有一个小费分享,或只是想谈谈这首歌? 开始讨论!

您必须登录才能加入讨论
要么 注册

 

关于这首歌

没有这首歌的信息.